Cifra Club

Proibida Pra Mim

Charlie Brown Jr.

Tab de baixo: Principal
Selo Cifra Club: esta cifra foi revisada para atender aos critérios oficiais da nossa Equipe de Qualidade.
tom: Afinação:
[Introdução]

Gb|----------------------------------------------|
Db|----------------------------------------------|
Ab|-------------------------------4----4---------|
Eb|--2------2------2------2----x-----------------|

Gb|----------------------------------------------|
Db|----------------------------------------------|
Ab|--2------2------2------2----0--2----0---------|
Eb|----------------------------------------------|

Gb|--------------6-------------------------------|
Db|------2--2/4-----4--2----2--2-----------------|
Ab|-------------------------------0--2--2--0--2--|
Eb|--2-------------------------------------------|

Gb|--------------6-------------------------------|
Db|------x--2/4-----4--2----2--2-----------------| (2x)
Ab|-------------------------------0--2--2--0--2--|
Eb|--2-------------------------------------------|

Gb|--------------6-------------------------------|
Db|------x--2/4-----4--2----2--2-----------------|
Ab|-------------------------------0--2--0--2/----|
Eb|--2-------------------------------------------|

[Primeira Parte]

Gb|----------------------------------------------|
Db|---------6----6--7--9-------------------------|
Ab|--7---------------------------6----7--6-------|
Eb|-----------------------7-----------------7----|

Gb|----------------------------------------------|
Db|-----------------6----7----7--6----6--7-------|
Ab|---------7----7-------------------------------|
Eb|--9-------------------------------------------|

Gb|----------------------------------------------|
Db|---------6----6--7--9-------------------------|
Ab|--7---------------------------6----7--6-------|
Eb|-----------------------7-----------------7----|

Gb|----------------------------------------------|
Db|-----------------6----7----7--6----6----------|
Ab|---------7----7-----------------------9-------|
Eb|--9-------------------------------------------|

Gb|----------------------------------------------|
Db|---------6----6--7--9-------------------------|
Ab|--7---------------------------6----7--6-------|
Eb|-----------------------7-----------------7----|

Gb|----------------------------------------------|
Db|-----------------6----7--7--7--6----6--7------|
Ab|---------7----7-------------------------------|
Eb|--9-------------------------------------------|

Gb|----------------------------------------------|
Db|---------6----6--7--9-------------------------|
Ab|--7---------------------------6----7--6-------|
Eb|-----------------------7-----------------7----|

Gb|----------------------------------------------|
Db|-----------------6----7--7--7--6----6---------|
Ab|---------7----7------------------------9------|
Eb|--9-------------------------------------------|

[Refrão]

Parte 01 de 02 (3x)

Gb|----------------------------------------------|
Db|-----------9----------------------------------|
Ab|-7----7-------7--x----------6--------9--------|
Eb|--------------------7----7-----7--7-----7--0--|

Gb|----------------------------------------------|
Db|------6--------6------------------------------|
Ab|-4-------4--4-----4--0----0--4--0--5--0--6--0-|
Eb|----------------------------------------------|

Parte 02 de 02

Gb|----------------------------------------------|
Db|-----------9----------------------------------|
Ab|-7----7-------7--x----------6--------9--------|
Eb|--------------------7----7-----7--7-----7--0--|

Gb|----------------------------------------------|
Db|------6--------6------------------------------|
Ab|-4-------4--4-----4--0----0--0----0/----------|
Eb|----------------------------------------5\----|

[Interlúdio]

Gb|--------------6-------------------------------|
Db|---------2/4-----4--2----2--2-----------------|
Ab|-------------------------------0--2--2--0--2--|
Eb|--2-------------------------------------------|

Gb|--------------6-------------------------------|
Db|---------2/4-----4--2----2--2-----------------| (2x)
Ab|-------------------------------0--2--2--0--2--|
Eb|--2-------------------------------------------|

Gb|--------------6-------------------------------|
Db|---------2/4-----4--2----2--2-----------------|
Ab|-------------------------------0--2--0--2/----|
Eb|--2-------------------------------------------|

[Segunda Parte] - 2x

Gb|----------------------------------------------|
Db|---------6----6--7--9-------------------------|
Ab|--7---------------------------6----7--6-------|
Eb|-----------------------7-----------------7----|

Gb|----------------------------------------------|
Db|-----------------6----7----7--6----6--7-------|
Ab|---------7----7-------------------------------|
Eb|--9-------------------------------------------|

Gb|----------------------------------------------|
Db|---------6----6--7--9-------------------------|
Ab|--7---------------------------6----7--6-------|
Eb|-----------------------7-----------------7----|

Gb|----------------------------------------------|
Db|-----------------6----7----7--6----6----------|
Ab|---------7----7-----------------------9-------|
Eb|--9-------------------------------------------|

[Refrão]

Parte 01 de 02 (3x)

Gb|----------------------------------------------|
Db|-----------9----------------------------------|
Ab|-7----7-------7--x----------6--------9--------|
Eb|--------------------7----7-----7--7-----7--0--|

Gb|----------------------------------------------|
Db|------6--------6------------------------------|
Ab|-4-------4--4-----4--0----0--4--0--5--0--6--0-|
Eb|----------------------------------------------|

Parte 02 de 02

Gb|----------------------------------------------|
Db|-----------9----------------------------------|
Ab|-7----7-------7--x----------6--------9--------|
Eb|--------------------7----7-----7--7-----7--0--|

Gb|----------------------------------------------|
Db|------6--------6------------------------------|
Ab|-4-------4--4-----4--0----0--0----0/----------|
Eb|----------------------------------------5\----|

[Introdução] - 2x

Gb|----------------------------------------------|
Db|----------------------------------------------|
Ab|-------------------------------4----4---------|
Eb|--2------2------2------2----x-----------------|

Gb|----------------------------------------------|
Db|----------------------------------------------|
Ab|--2------2------2------2----0--2----0---------|
Eb|----------------------------------------------|

[Refrão]

Parte 01 de 03

Gb|----------------------------------------------|
Db|-----------9----------------------------------|
Ab|-7----7-------7--x-----------6--------9-------|
Eb|--------------------7--7--7-----7--7-----7--0-|

Gb|----------------------------------------------|
Db|------6--------6------------------------------|
Ab|-4-------4--4-----4--0----0--4--0--5--0--6--0-|
Eb|----------------------------------------------|

Parte 02 de 03 - 2x

Gb|----------------------------------------------|
Db|-----------9----------------------------------|
Ab|-7----7-------7--x----------6--------9--------|
Eb|--------------------7----7-----7--7-----7--0--|

Gb|----------------------------------------------|
Db|------6--------6------------------------------|
Ab|-4-------4--4-----4--0----0--4--0--5--0--6--0-|
Eb|----------------------------------------------|

Parte 03 de 03

Gb|----------------------------------------------|
Db|-----------9----------------------------------|
Ab|-7----7-------7--x----------6--------9--------|
Eb|--------------------7----7-----7--7-----7--0--|

Gb|----------------------------------------------|
Db|------6--------6------------------------------|
Ab|-4-------4--4-----4--0----0--0--0-0-0---------|
Eb|---------------------------------------4--2--0|
Outros vídeos desta música
77.641 exibições

Afinação da cifra

Afinador online

0 comentários

Ver todos os comentários

Entre para o Cifra Club PRO

Tenha acesso a benefícios exclusivos no App e no Site

  • Chega de anúncios

  • Mais recursos no app do Afinador

  • Atendimento Prioritário

  • Aumente seu limite de lista

  • Ajude a produzir mais conteúdo

Cifra Club Pro

Aproveite o Cifra Club com benefícios exclusivos e sem anúncios
Cifra Club Pro
Aproveite o Cifra Club com benefícios exclusivos e sem anúncios
OK