Enviar cifraEntrar

Zóio de Lula

Charlie Brown Jr.

Tab de baixo: Principal
exibições 124.329
Intro:
G|---------------------------------------------------
D|---------------------------------------------------
A|-11\4-----14h16-16-16--16-16-16/-------------------
E|---------------------------------------------------

G|---------------------------------------------------
D|-----------------------2------------------------2--
A|-4-4-2-4-2---2-2-----2----4-4-2-4-2---2-2-----2----
E|-----------4-----2-4----------------4-----2-4------

G|---------------------------------------------------
D|-----------------------2---------------------------
A|-4-4-2-4-2---2-2-----2----4-4-2-4-2----------------
E|-----------4-----2-4----------------4-7\-----------

Primeira Parte:
G|---------------------------------------------------
D|-----------------------2------------------------2--
A|-4-4-2-4-2---2-2-----2----4-4-2-4-2---2-2-----2----
E|-----------4-----2-4----------------4-----2-4------

G|---------------------------------------------------
D|-----------------------2---------------------------
A|-4-4-2-4-2---2-2-----2----4-4-2-4-2---2/14-x-14\---
E|-----------4-----2-4----------------4--------------

G|---------------------------------------------------
D|-----------------------2------------------------2--
A|-4-4-2-4-2---2-2-----2----4-4-2-4-2---2-2-----2----
E|-----------4-----2-4----------------4-----2-4------

G|---------------------------------------------------
D|-----------------------2------------------------2--
A|-4-4-2-4-2---2-2-----2----4-4-2-4-2---2-2-----2----
E|-----------4-----2-4----------------4-----2-4------

G|---------------------------------------------------
D|-----------------------2------------------------2--
A|-4-4-2-4-2---2-2-----2----4-4-2-4-2---2-2-----2----
E|-----------4-----2-4----------------4-----2-4------

G|---------------------------------------------------
D|-----------------------2---------------------------
A|-4-4-2-4-2---2-2-----2----4-4-2-4-2---2------------
E|-----------4-----2-4----------------4--------------

Tirou a roupa
Entrou no mar
Pensei: Meu Deus!
Que bom que fosse
Tu me apresenta
Essa mulher
Meu irmão te dava
Até um doce
Sem roupa ela é demais
Também por isso
Eu creio em Deus
Meu Bom, Meu Deus
Meu Bom, me trás...
Ainda bem que eu trouxe
Até meu guarda-sol
Tenho toda tarde
Tenho a vida inteira
Já se foi aquele tempo
Da ladeira, irmão!
Já que se foi aquele tempo
Da ladeira, irmão!
Meu escritório é na praia
Eu tô sempre na área
Mas eu não sou
Da tua láia, não!
Meu escritório é na praia
Eu tô sempre na área
Mas eu não sou
Daquela láia, não!


Refrão:
                                     Harm
G|---------------------------------------------------
D|------------------------------------9--------------
A|-4-4-4-6-7-6---------4-4-4-6-7-6----9--------------
E|-------------7-7-4-7-------------7/---4-7----------

                                     Harm
G|---------------------------------------------------
D|------------------------------------9--------------
A|-4-4-4-6-7-6---------4-4-4-6-7-6----9--------------
E|-------------7-7-4-7-------------7/---4-7----------

(...)
Então!
Deixe viver, deixe ficar
Deixe estar como está
Deixe viver, deixe ficar
Deixe estar como está...

Segunda parte:
G|---------------------------------------------------
D|---------------------------------------------------
A|-4-4-4-6-7-6---------4-4-4-6-7-6-------------------
E|-------------7-7-4-7-------------7-7-4-7-----------

G|---------------------------------------------------
D|---------------------------------------------------
A|-4-4-4-6-7-6---------4-4-4-6-7-6-------------------
E|-------------7-7-4-7-------------7-7-4-7-----------

(...)
Meu Deus me dê um motivo
Pois eu pago tanto mico
Ela me ignora
Na esperança eu ainda fico
Eu tô fritando aqui
Vou entregar
Não agüento mais
Mas se eu não falar hoje
Talvez nunca a veja mais...

Terceira parte:
G|---------------------------------------------------
D|---------------------------------------------------
A|-4-4---4---2-2---2-2---4-4---4---2-2---2-2---------
E|-----4---4-----4-----4-----4---4-----4-----4-------

G|---------------------------------------------------
D|---------------------------------------------------
A|-4-4---4---2-2---2-2---4-4---4---2-2---2-2---2-----
E|-----4---4-----4-----4-----4---4-----4-----4-------

(...)
O dia passa
Horas se estendem
As pessoas ao redor
Nunca me entendem...(2x)

Refrão:
                                    Harm
G|---------------------------------------------------
D|------------------------------------9--------------
A|-4-4-4-6-7-6---------4-4-4-6-7-6----9--------------
E|-------------7-7-4-7-------------7/---4-7----------

                                     Harm
G|---------------------------------------------------
D|------------------------------------9--------------
A|-4-4-4-6-7-6---------4-4-4-6-7-6----9--------------
E|-------------7-7-4-7-------------7/---4-7----------

                                    Harm
G|---------------------------------------------------
D|------------------------------------9--------------
A|-4-4-4-6-7-6---------4-4-4-6-7-6----9--------------
E|-------------7-7-4-7-------------7/---4-7----------
                                        
                                     Harm
G|---------------------------------------------------
D|------------------------------------9--------------
A|-4-4-4-6-7-6---------4-4-4-6-7-6----9--------------
E|-------------7-7-4-7-------------7/---4-7----------

(...)
Então!
Deixe viver, deixe ficar
Deixe estar como está
Deixe viver, deixe ficar
Deixe estar como está...(2x)

Solo de guitarra:

G|---------------------------------------------------
D|---------------------------------------------------
A|-4-4---4---2-2---2-2---4-4---4---2-2---2-2---------
E|-----4---4-----4-----4-----4---4-----4-----4-------

G|---------------------------------------------------
D|---------------------------------------------------
A|-4-4---4---2-2---2-2---4-4---4---2-2---2-2---------
E|-----4---4-----4-----4-----4---4-----4-----4-------

G|---------------------------------------------------
D|---------------------------4h6-4---4---------------
A|-4-4---4---2-2---2-2---4-4-------7---7-------------
E|-----4---4-----4-----4-----------------------------

G|---------------------------------------------------
D|---------------------------------------------------
A|-4-4---4---2-2---2-2---4-4---4---2-2---2-2---------
E|-----4---4-----4-----4-----4---4-----4-----4/------


Repetição da terceira parte:

G|---------------------------------------------------
D|---------------------------------------------------
A|-14h16\--------------------------------------------
E|---------------------------------------------------

G|---------------------------------------------------
D|-9h11-11-11-11\------------------------------------
A|---------------------------------------------------
E|---------------------------------------------------

(...)
O dia passa
Horas se estendem
As pessoas ao redor
Nunca me entendem...(2x)

(Repete a Primeira parte)

(Repete o Refrão)

Final:

G|---------------------------------------------------
D|---------------------------------------------------
A|-4-4---4---2-2---2-2---4-4---4---2-2---2-2---------
E|-----4---4-----4-----4-----4---4-----4-----4-------

G|---------------------------------------------------
D|-----4h6-4---4-------------------------------------
A|-4-4-------7---7---4-4---4---2-2-------------------
E|-----------------7-----4---4-----4-----------------

G|---------------------------------------------------
D|---------------------------------------------------
A|-4-4---4---2-2---2-2---4-4---4---2-2---2-2---4-----
E|-----4---4-----4-----4-----4---4-----4-----4-------

(...)
Aheeeeeeeeeeeeeeê!
Aheeeeeeeeeeeeeeê!
Aheeeeeeeeeeeeeeê!
  • 1
  • 2
  • 3
  • 4
  • 5
  • 6
  • 7
  • 8
  • 9
  • 10
  • 11
  • 12
    Composição: Champ!Colaboração e revisão:

    0 comentários

      mostrar mais comentários
      00:00 / 00:00
      outros vídeos desta música
      repetirqualidadeautomática
      • automática
      Outro vídeos desta música
        00:00 / 00:00
        automática
        • automática
        Acordes para:violão e guitarra
        dificuldadeexibiçõescontribuições
        fecharplay/pause subir/descer velocidade
        fechar
        OK
        Feedback