Zóio de Lula

Charlie Brown Jr.

 Charlie Brown Jr.
Tom: E
		
Intro: C#m  B5(9)


|--4-4-|--4-4----|
|--5-5-|--4-4----|
|--6-6-|--4-4----|


(baixo)

G |--------------------------------- (3x)
D|-----------------------------2---
A|--4-4---2-4-2-----2-2---2-4------
E|--------------4-------4----------



G |---------------------------------
D|---------------------------------
A|--4-4---2-4-2----2---------------
E|--------------4------------------


(depois entra na música)

( C#m  B5(9) )
Tirou a roupa, entrou no mar
pensei meu Deus, que bom que fosse
Tu me apresenta essa mulher,
meu irmão te dava te um doce
Sem roupa ela é demais
Também por isso eu creio em Deus..

Ainda bem que eu trouxe até meu guarda-sol
Tenho toda tarde, tenho a vida inteira
Já se foi aquele trampo
da ladeira irmão
Ja se foi aquele trampo
da ladeira irmão

      C#m
Meu escritório é na praia
Eu tô sempre na area
           Bm  E5
Mas eu não

( C#m  B5(9) )
Então,
deixe viver
deixe ficar
Deixe estar como está...

Baixo:


G |----------------------------------------------------|
D|----------------------------------------------------|
A|-4-4-4--4-6-7-6----------4-4-4--4-6-7-6---9---------|
E|----------------7-7--4-7----------------7-----------|



Meu Deus
me dê um motivo
pois eu pago tanto mico
Ela me ignora, na esperança
ainda fico
Eu tô fritando aqui, eu
vou me entregar,
não aguento mais
Mas se eu não falar hoje
talvez nunca veja mais,
pois

Baixo:


G |--------------------------------------------
D|--------------------------------------------
A|---4-4-------4---2-2-----2-2----------------
E|-----------4---4------4-------4-------------


 O dia passa , horas se estendem
 as, pessoas ao redor nunca me entendem
 O dia passa hora se estendem as,
 pessoas ao redor nunca me entendem

( C#m  B5(9) )
Então,
deixe viver
deixe ficar
Deixe estar como está...

/b : ele toca a nota e com o dedo ele sobe 1 tom
h: liga dura
/: arrasta
~~: tremolo, ou wah wah (sem wah wah fica dificil imitar esta musica)


Eb|---------9----------12h13h12----12h13h12----------------
Bb|-----------9--13/b-----------------------13-------------
Gb|---12b--------------------------------------12/10-------
Db|--------------------------------------------------------
Ab|--------------------------------------------------------
Eb|--------------------------------------------------------



Eb|-----------------8---5h6h5--------5h6h5----------
Bb|-----------5h6h8------------(8)------------------
Gb|-/9-/7-/5----------------------------------------
Db|-------------------------------------------------
Ab|-------------------------------------------------
Eb|-------------------------------------------------



Eb|----6-h5-----------------------------------------
Bb|-----------8h6h5----------------5h6--------------
Gb|-------------------7h5------5h7------------------
Db|------------------------7h5----------------------
Ab|-------------------------------------------------
Eb|-------------------------------------------------



Eb|-----11~~-----15~~-------------------------------
Bb|-----11~~-----15~~-------------------------------
Gb|-----11~~-----14~~-------------------------------
Db|-------------------------------------------------
Ab|-------------------------------------------------
Eb|-------------------------------------------------


(baixo e batera)

O dia passa horas se estendem as,
pessoas ao redor nunca me entendem
O dia passa horas se estendem
as, pessoas ao redor nunca me entendem

( C#m  B5(9) )
Tirou a roupa, entrou no mar
pensei meu Deus, que bom que fosse
Tu me apresenta essa mulher,
meu irmão te dava te um doce
Sem roupa ela é demais
Também por isso eu creio em Deus
Meu bom,meu Deus,meu bom, me traz
Ainda bem que eu trouxe até meu guarda-sol
Tenho toda tarde, tenho a vida inteira
Já sei foi aquele tempo
da ladeira irmão
Já se foi aquele tempo
Sangue Bão...

      C#m
Meu escritório é na praia
Eu tô sempre na area
           Bm  E5
Mas eu não ....

      C#m
Meu escritorio é na praia
Eu tô sempre na área
           Bm                  E5
Mas eu não sou daquela laia não

C#m B5(9) (4x)
Então,
deixe viver
deixe ficar
Deixe estar como está...

Aiê...

Saca só...
"As flores são bonitas em qualquer lugar do mundo
Muita gente tem forma, mas não tem conteúdo...


E|---------------16---------|
B|------9------------14-----|
G|--9-----------------------|
D|--------------------------|
A|--------------------------|
E|--------------------------|

Comentários 18

  • Thainá Thainá: Postado em 10/08/2014 14:46

    O Intro está errado eu corrigi

  • pedro.takeuti.9 pedro.takeuti.9: Postado em 08/05/2014 14:10

    só acho q na base se jogar um Gm no lugar de B5(9) fica um pouco mais parecido com o acústico e ñ sai do tom continua no campo harmônico de

  • gabriel gabriel: Postado em 15/04/2014 12:41

    Mano faz vídeo aula de Camisa 10 joga bola até na chuva. Eu procuro em todo lugar e não acho. vlw

  • josue josue: Postado em 24/03/2014 14:02

    meu escritorio é na praia eu to sempre na area

  • Daniel Daniel: Postado em 28/11/2013 20:56

    A base da musica ta errada veio, o certo é C#m e G#m esse B5(9) ta muito tosco veio kkk

    • juan juan: Postado em 07/03/2014 12:44

      a base esta muito errada mesmo

  • mauricio mauricio: Postado em 12/03/2013 19:10

    versão completa leu valeuuu

  • raphaelwn raphaelwn: Postado em 11/03/2013 14:54

    faz a versao completa aew mano

  • yulo yulo: Postado em 10/03/2013 00:36

    faz a video aula da parte do baixo

  • marley229 marley229: Postado em 08/01/2013 12:18

    seus mula e versao simplificada porra

Exibindo 10 de 18 comentários Mostrar mais ver todos »
Composição: Champ! / MV Bill
Esse não é o compositor? Avise-nos.
Contribuição: SpideR Correções: Breno Bernardes , bettiol e mais 4 »
Exibir acordes »
publicidade
fechar