Lutar Pelo Que É Meu

Charlie Brown Jr.

 Charlie Brown Jr.
nome: Vinícius, sou de Jacareí-SP

Meu email é: rox_4o0@yahoo.com.br 

obs: o heitor toka num baixo de 5 cordas.


----------------------|--------------------------|----------------------------|
---------------------|--------------------------|----------------------------|
----------------------|--6--L-----6--L-----6-----|--8--L-----8----------------|
-------------------8--|-----------------8-----8--|--------------8--10--11-----|
----------------------|--------------------------|----------------------------|

  
--------------------------|--------------------------|
--------------------------|--------------------------|
--4--L-----4--L--------0--|--4--L-----4--L--0--4--0--|
--------------------------|--------------------------|
--------------------------|--------------------------|


--------------------------|----------------------------|
--------------------------|----------------------------|
--6--L-----6--L-----6-----|--8--L-----8----------------|
-----------------8-----8--|--------------8--10--11-----|
--------------------------|----------------------------|


--------------------------|------------------------------------|
--------------------------|--11-11-11--11--10--10--10----------|
--4--L-----4--L--------0--|----------------------------11--11--|
--------------------------|------------------------------------|
--------------------------|------------------------------------|


--------------------------|--------------------------|
--------------------------|--------------------------|
--------------------------|--------------------------|
--------------------------|--4--L--0--4--L--0--4--0--|
--6--L--4--6--L--4--6--4--|--------------------------|


 
--------------------------|--------------------------|
--------------------------|--------------------------|
--3--L-----3--L--L--L--0--|--------------3--5--6--3--|
--------------------------|--6--L-----6--------------|
--------------------------|--------------------------|


--------------------------|----------------------------|
--3--L-----3--L-----------|----------------------------|
-----------------3--5--7--|-------------------6-6-6----|
--------------------------|--4--L-----4--L----------9--|
--------------------------|----------------------------|

 
--------------------------|--------------------------|
--------------------------|--------------------------|
--------------------------|--6--L-----6--L-----6-----|
--8--------8-----6--8--6--|-----------------8-----8--|
--------------------------|--------------------------|


--------------------------|--------------------------|
--------------------------|--------------------------|
--------------------------|--------------------------|
--------------------------|--------------------------|
--4--L-----4--L-----------|--6--L-----6--L--6--4-----|



--------------------------|------------------------------------|
--------------------------|--11-11-11--11--10--10--10----------|
--------------------------|----------------------------11--11--|
--------------------------|------------------------------------|
--2--L-----2--L-----------|------------------------------------|

  
--------------------------|--------------------------|
--------------------------|--------------------------|
--------------------------|--------------------------|
--------------------------|--------------------------|
--4--L-----4--L-----------|--6--L-----6--L--6--4-----|



--------------------------|-------------------|--------------------------|
--------------------------|-------------------|--------------------------|
--------------------------|-------------------|--6--L-----6--L-----6-----|
--------------------------|-------------------|-----------------8-----8--|
--2--L-----2--L-----------|-------------------|--------------------------|


  
----------------------------|--------------------------|
----------------------------|--------------------------|
--8--L-----8----------------|--4--L-----4--L--------0--|
--------------8--10--11-----|--------------------------|
----------------------------|--------------------------|


              
------------------------------------|-------------------|-------------------|
--11-11-11--11--10--10--10----------|-------------------|-------------------|
----------------------------11--11--|--6----------------|--8----------------|
------------------------------------|-------------------|-------------------|
------------------------------------|-------------------|-------------------|

 
-------------------|----------------------|--------------------------|
-------------------|----------------------|--------------------------|
--4----------------|-------------------0--|--6--L-----6--L--0--6--0--|
-------------------|----------------------|--------------------------|
-------------------|----------------------|--------------------------|


  
--------------------------|--------------------------|
-----6--5-----------------|--------------------------|
--6--------------------0--|--4--L-----4--L--------0--|
-----------4--L-----------|--------------------------|
-----------------6--L-----|--------------------------|

  
--------------------------|--------------------------|
--------------------------|--------------------------|
--4--L-----4--L--0--4--0--|--6--L-----6--L--0--6--0--|
--------------------------|--------------------------|
--------------------------|--------------------------|


 
--------------------------|--------------------------|
-----6--5-----------------|--------------------------|
--6--------6--5--3--------|--4--L-----4--L--------0--|
--------------------4--L--|--------------------------|
--------------------------|--------------------------|


  
------------------------------------|--------------------------|
--11-11-11--11--10--10--10----------|--------------------------|
----------------------------11--11--|--------------------------|
------------------------------------|--------------------------|
------------------------------------|--6--L--4--6--L--4--6--4--|

  
--------------------------|--------------------------|
--------------------------|--------------------------|
--------------------------|--3--L-----3--L--L--L--0--|
--4--L--0--4--L--0--4--0--|--------------------------|
--------------------------|--------------------------|


 
--------------------------|--------------------------|
--------------------------|--3--L-----3--L-----------|
--------------3--5--6--3--|-----------------3--5--7--|
--6--L-----6--------------|--------------------------|
--------------------------|--------------------------|


 
----------------------------|--------------------------|
----------------------------|--------------------------|
-------------------6-6-6----|--------------------------|
--4--L-----4--L----------9--|--8--------8-----6--8--6--|
----------------------------|--------------------------|


            
--------------------------|-------------------|-------------------|
--------------------------|-------------------|-------------------|
--6--L-----6--L-----6-----|-------------------|-------------------|
-----------------8-----8--|-------------------|-------------------|
--------------------------|-------------------|-------------------|


 
--------------------------|-------------------------------|
--------------------------|-------------------------------|
--------------------------|-----------6s--15--15--15--13--|
--------------------------|-------------------------------|
--4--4--4--4--L--4--3--4--|--L--4--4----------------------|



--------------------------|--------------------------|
--------------------------|--------------------------|
--------------------------|--------------3--3--1--L--|
--------------------------|--------------------------|
--4--4--4--4--L--4--3--4--|--L--4--3--L--------------|

E   
--------------------------|--------------------------|
--------------------------|--------------------------|
--6--L--0--6--L--0--6--L--|--8--6--------------------|
--------------------------|--------8-----------------|
--------------------------|-----------8--L--6--L--L--|



--------------------------|--------------------------|
--------------------------|--------------------------|
--4--L--0--4--L--L--L--0--|--4--L--0--4--L--0--4--0--|
--------------------------|--------------------------|
--------------------------|--------------------------|



--------------------------|-------------------------------|
--------------------------|-------------------------------|
--------------------------|-----------6s--15--15--15--13--|
--------------------------|-------------------------------|
--4--4--4--4--L--4--3--4--|--L--4--4----------------------|


   
--------------------------|--------------------------|
--------------------------|--------------------------|
--------------------------|--------------3--3--1--L--|
--------------------------|--------------------------|
--4--4--4--4--L--4--3--4--|--L--4--3--L--------------|


  
--------------------------|--------------------------|
--------------------------|-----6--4-----------------|
--6--L--0--6--L--0--6--L--|--6--------6--4-----------|
--------------------------|-----------------7--4--L--|
--------------------------|--------------------------|

  
--------------------------|--------------------------|
--------------------------|--------------------------|
--4--L--0--4--L--L--L--0--|--4--L--0--4--L--0--4--0--|
--------------------------|--------------------------|
--------------------------|--------------------------|

  
--------------------------|--------------------------|
--------------------------|--------------------------|
--6--L--0--6--L--0--6--L--|--8--6--------------------|
--------------------------|--------8-----------------|
--------------------------|-----------8--L--6--L--L--|


               
--------------------------|--------------------------|-------------------|
--------------------------|--------------------------|-------------------|
--4--L--0--4--L--L--L--0--|--4--L--0--4--L--0--4--0--|-------------------|
--------------------------|--------------------------|-------------------|
--------------------------|--------------------------|--4----------------|

              
-------------------|-------------------|-------------------|-------------------|
-------------------|-------------------|-------------------|-------------------|
-------------------|-------------------|-------------------|-------------------|
-------------------|-------------------|-------------------|-------------------|
--6----------------|--2----------------|-------------------|--4----------------|


             
--------------------------|-------------------|-------------------|
--------------------------|-------------------|-------------------|
--------------------------|-------------------|-------------------|
--------------------------|--9----------------|-------------------|
--6--L--L--8--L--9--L--L--|-------------------|-------------------|


   
---------------------------|--------3--------L----|---------------------------|
-----6-6-5--6--5-----5-----|--3--5----------------|-----6-6-5--6--5--L--5-----|
------------------6-----6--|----------------------|------------------------6--|
---------------------------|----------------------|---------------------------|
---------------------------|----------------------|---------------------------|

   
--------------------------|---------------------------|--------3--------L----|
--------------------------|-----6-6-5--6--5-----5-----|--3--5----------------|
--L--6--------------------|------------------6-----6--|----------------------|
--------8--L--8--4--L--L--|---------------------------|----------------------|
--------------------------|---------------------------|----------------------|

  
---------------------------|--------------------------|
-----6-6-5--6--5--L--5-----|--------------------------|
------------------------6--|--L--6--------------------|
---------------------------|--------8--L--8--4--L--L--|
---------------------------|--------------------------|

 
--------------------------|--------------------------|
--------------------------|--------------------------|
--6--L--6--L--6--L--L-----|--6--8--8--L--8-----6--8--|
-----------------------6--|-----------------6--------|
--------------------------|--------------------------|

 
--------------------------|--------------------------|
--------------------------|--------------------------|
--4--4--4--L--4--L--1--4--|--L--3--L-----------------|
--------------------------|-----------4--L--3--L--L--|
--------------------------|--------------------------|
 
--------------------------|--------------------------|
--------------------------|--------------------------|
--------------------------|-----------------------3--|
--------------------------|-----3--L--4--L--6--L-----|
--4--4--4--L--4--L--4--6--|--L-----------------------|

 
--------------------------|--------------------------|
--------------------------|--------------------------|
--4--4--4--L--4--L--1--4--|--L--4--L--1--4--4--1-----|
--------------------------|-----------------------4--|
--------------------------|--------------------------|
  
--------------------------|--------------------------|
--------------------------|--------------------------|
--6--L-----6--L-----6-----|--8--L-----8--------6-----|
-----------------8-----8--|--------------8--9--------|
--------------------------|--------------------------|

--------------------------|--------------------------|
--------------------------|--------------------------|
--4--L-----4--L--------0--|--4--L-----4--L--0--4--0--|
--------------------------|--------------------------|
--------------------------|--------------------------|


--------------------------|--------------------------|
--------------------------|--------------------------|
--6--L-----6--L-----6-----|--8--L-----8--------6-----|
-----------------8-----8--|--------------8--9--------|
--------------------------|--------------------------|


--------------------------|------------------------------------|
--------------------------|--11-11-11--11--10--10--10----------|
--4--L-----4--L--------0--|----------------------------11--11--|
--------------------------|------------------------------------|
--------------------------|------------------------------------|

 
--------------------------|--------------------------|
--------------------------|--------------------------|
--------------------------|--------------------------|
--------------------------|--4--L--0--4--L--0--4--0--|
--6--L--4--6--L--4--6--4--|--------------------------|

 
--------------------------|--------------------------|
--------------------------|--------------------------|
--3--L-----3--L--L--L--0--|--------------3--5--6--3--|
--------------------------|--6--L-----6--------------|
--------------------------|--------------------------|


--------------------------|----------------------------|
--3--L-----3--L-----------|----------------------------|
-----------------3--5--7--|-------------------6-6-6----|
--------------------------|--4--L-----4--L----------9--|
--------------------------|----------------------------|


--------------------------|--------------------------|
--------------------------|--------------------------|
--------------------------|--6--L-----6--L-----6-----|
--8--------8-----6--8--6--|-----------------8-----8--|
--------------------------|--------------------------|
 
--------------------------|--------------------------|
--------------------------|--------------------------|
--------------------------|--------------------------|
--------------------------|--4--L--0--4--L--0--4--0--|
--6--L--4--6--L--4--6--4--|--------------------------|

 
--------------------------|--------------------------|
--------------------------|--------------------------|
--3--L-----3--L--L--L--0--|--------------3--5--6--3--|
--------------------------|--6--L-----6--------------|
--------------------------|--------------------------|

 
--------------------------|----------------------------|
--3--L-----3--L-----------|----------------------------|
-----------------3--5--7--|-------------------6-6-6----|
--------------------------|--4--L-----4--L----------9--|
--------------------------|----------------------------|

 
--------------------------|--------------------------|
--------------------------|--------------------------|
--------------------------|--6--L-----6--L-----6-----|
--8--------8-----6--8--6--|-----------------8-----8--|
--------------------------|--------------------------|

  
--------------------------|--------------------------|
--------------------------|--------------------------|
--6--L--0--6--L--0--6--L--|--8--6--------------------|
--------------------------|--------8-----------------|
--------------------------|-----------8--L--6--L--L--|
  
--------------------------|--------------------------|
--------------------------|--------------------------|
--4--L--0--4--L--L--L--0--|--4--L--0--4--L--0--4--0--|
--------------------------|--------------------------|
--------------------------|--------------------------|


 
--------------------------|--------------------------|
--------------------------|-----6--4-----------------|
--6--L--0--6--L--0--6--L--|--6--------6--4-----------|
--------------------------|-----------------7--4--L--|
--------------------------|--------------------------|
  
--------------------------|--------------------------|
--------------------------|--------------------------|
--4--L--0--4--L--L--L--0--|--4--L--0--4--L--0--4--0--|
--------------------------|--------------------------|
--------------------------|--------------------------|


 
--------------------------|-------------------------------|
--------------------------|-------------------------------|
--------------------------|-----------6s--15--15--15--13--|
--------------------------|-------------------------------|
--4--4--4--4--L--4--3--4--|--L--4--4----------------------|



--------------------------|--------------------------|
--------------------------|--------------------------|
--------------------------|--------------3--3--1--L--|
--------------------------|--------------------------|
--4--4--4--4--L--4--3--4--|--L--4--3--L--------------|


 
--------------------------|-------------------------------|
--------------------------|-------------------------------|
--------------------------|-----------6s--15--15--15--13--|
--------------------------|-------------------------------|
--4--4--4--4--L--4--3--4--|--L--4--4----------------------|


            
--------------------------|--------------------------|-------------------||
--------------------------|--------------------------|-------------------||
--------------------------|--------------3--3--1--L--|-------------------||
--------------------------|--------------------------|-------------------||
--4--4--4--4--L--4--3--4--|--L--4--3--L--------------|--4----------------||

Comentários 0

Composição: Ali Thomson / F.Golde
Esse não é o compositor? Avise-nos.
Contribuição: Correções: vmachuca e mais 1 »
Consegui tocarAinda não conseguiram tocar essa música. Seja o primeiro!
    Não consegui tocar
    publicidade
    fechar