Não Deixe O Mar Te Engolir

Charlie Brown Jr.

 Charlie Brown Jr.
Tom: C
Afinação: Eb Ab Db Gb Bb Eb
		
Introdução:

-|-------------------------------------------------------|-
-|-------------------------------------------------------|-
-|-------------------------------------------------------|-
-|------------------------------5------------------------|-
-|---5-7---5-7-------5-----5------7----------------------|-
-|-0-----0-----0-5-7---7-7----7--------------------------|-
  G1 4x (ABAFADO)



-|-------------------------------------------------------|-
-|-------------------------------------------------------|-
-|--7-7-7-7-7-7-7-7-7-7-7-7-7-7-7-7-7-7-7-7-7-7-7-7-7-7--|-
-|--7-7-7-7-7-7-7-7-7-7-7-7-7-7-7-7-7-7-7-7-7-7-7-7-7-7--|-
-|--5-5-5-5-5-5-5-5-5-5-5-5-5-5-5-5-5-5-5-5-5-5-5-5-5-5--|-
-|-------------------------------------------------------|-
 G2 4x (ABAFADO)



-|-------------------------------------------------------|-
-|-------------------------------------------------------|-
-|-------------------------------------------------------|-
-|-------------------------5-----------------------------|-
-|---5-7---5-7-----5---5-----7---------------------------|-
-|-0-----0-----0-5---7---7-------------------------------|-


G1 verso

 esse solo está quase certo (me corrijam se for preciso)


-|--------------------------------------------------------------------------19/22-|-
-|-----------------------------------15-------15-17-----15-17-19--15-17-19--------|-
-|--14-15-16---14-15-16-18--15-16-18----16-18--------18---------------------------|-
-|15------------------------------------------------------------------------------|-
-|--------------------------------------------------------------------------------|-
-|--------------------------------------------------------------------------------|-



-|-22p19---------------------------------------------------------|-
-|-------22p19---------------------------------------------------|-
-|-------------19p16---------------------------------------------|-
-|-------------------19p16---------------------------------------|-
-|------------------------19p17----------------------------------|-
-|------------------------------19p17---------14~~~~~~-----------|-



-|-------------------------------------------------------|-
-|-------------------------------------------------------|-
-|-------------------------------------------------------|-
-|-14^^^19t-(16 vezes)-----------------------------------|-
-|-------------------------------------------------------|-
-|-------------------------------------------------------|-


G1 refão


-|-------------------------------------------------------|-
-|-------------------------------------------------------|-
-|--7/9-7/9--7/9-7-7-7-7-7----------------11-------------|-
-|--7/9-7/9--7/9-7-7-7-7-7----------------11-------------|-
-|--5/7-5/7--5/7-5-5-5-5-5----Termina com-9--------------|-
-|----------------------------------------0--------------|-

 G1 final

Comentários 4

  • Rafael Rafael: Postado em 16/11/2014 00:39

    Video aula pooo hauehaueh

  • josue josue: Postado em 04/09/2014 08:41

    musica foda vei

  • Henrique Henrique: Postado em 24/02/2014 21:48

    video aula nessa musica poooo

  • vinis_dias vinis_dias: Postado em 04/02/2012 14:33

    fodaaaaaa

Exibir acordes »
publicidade
fechar