Proibida Pra Mim

Charlie Brown Jr.

 Charlie Brown Jr.
Intro:
G|----------------------------|
D|----------------------------|
A|---------3-3----------------|  1x
E|-1-1-1-1-----6-6-6-6--4-6-4-|

Intro 2:
G|-------5---------------------|
D|---333---3-------------------|
A|------------6-6-4-4----------|  4x
E|-1-------------------6-6-4-4-|

Verso:
G|------------------------------------------|
D|---5--5-6-8-------------------5-6-6-5-5---|
A|-6-------------5-6-5--3--5-5------------8-|  4X
E|-----------6------------------------------|

Refrao:
G|-------------------------------------------------------|
D|------8------------------------5----5------------------|
A|-6-6----6-------5----8-6--3-3----3-----------3---4---5-|  8X
E|-----------6-6----6---------------------4-4----4---4---|

(Intro 2) 4x
(Verso) 4x
(Refrão) 8x
(Intro) 2x
(Refrão) 8x

Final
E|-4-3-1-0-|

Comentários 0

Composição: Charlie Brown Jr.
Esse não é o compositor? Avise-nos.
Contribuição: thbm Correções: Eduardo »
Consegui tocarAinda não conseguiram tocar essa música. Seja o primeiro!
    Não consegui tocar
    publicidade
    fechar