Quebra-mar

Charlie Brown Jr.

 Charlie Brown Jr. Compositor: Chorão / Marcão
Tom: A#
		
(ver. Acustica)


Intro: Am9 1 2

 (Am9 1 e 2)
Eu nao vou mudar mais minha vida agora é outra
Eu vou tentar entender, o que sai da tua boca
É só por isso, Vivo por isso, Vivo por isso, sem isso eu não vivo
Se voce quiser entender, entao me deixa eu te explicar
Rua de concreto, sangue nobre, água do mar
Rolé no meu Opala, pode acreditar, cheiro na mão brisa no olhar

 (Solinho)

e|----7--------7----------7----------7----------|
B|------5--------5--------7--7-------7--7-------|
G|---5---5---5-----5----7------5---7------5-----|
D|-7------------------5----------5--------------|
A|---------7------------------------------------|
E|----------------------------------------------|


 (Solinho)
Tem pra manda trazer, tem
Tem pra manda buscar, vai
Tem pra mostrar poder, tem
Tem pra te alucinar
Eu nao fico dividido, Nao sei porque tenho partido
Sistema falido, já aconteceu comigo


 (Am9 1 2)
Eu nao vou mudar mais minha vida agora é outra
Eu vou tentar entender, o que sai da tua boca
É só por isso, Vivo por isso, Vivo por isso, sem isso eu nao 
vivo
Se voce quiser entender, entao me deixa eu te explicar
Rua de concreto, sangue nobre, água do mar
Rolé no meu Opala, pode acreditar, cheiro na mão brisa no olhar

 (Solinho)
O que nao pode é essa situação
O que eu não gosto, eu me livro e digo não
O que nao pode é essa situação, Yeah 

SOLO: (Violão 1 fica fazendo o solinho enquanto violão 2 faz este solo)


  |================> 2 Vezes <=================|
e|---------------------------------------------------| 
b|-9-11--12-14-12-11-12-11-9---11--9-11-12-11-9------|
g|---------------------------8------------------11-8-|  (2x)
D|---------------------------------------------------|
A|---------------------------------------------------|
E|---------------------------------------------------|



e|-------------------------------------------------|
b|-9-11-12/14-12-11---11--9-11-12-11-9-------------|
g|------------------8------------------11-8--------|
D|-------------------------------------------------|
A|-------------------------------------------------|
E|-------------------------------------------------|



e|-------------------------------------------------|
b|-9-11-12/14-12-11---11--9-11-12-11-9-------9~~---|
g|------------------8------------------11-8--------|
D|-------------------------------------------------|
A|-------------------------------------------------|
E|-------------------------------------------------|


*******************************************************************

 (Am9)         (1)        (2)

e|--7--|       e|--7--|   e|--7--|
B|--5--|       B|--5--|   B|--7--|
G|--5--|       G|--5--|   G|--7--|
D|--7--|       D|--5--|   D|--5--|
A|--X--|       A|--7--|   A|--X--|
E|--X--|       E|--X--|   E|--X--|

_______________________________________________________







Versao 2:

Afinacao: D# 
BPM: 171

Base:
d#|--7--|   d#|--7--|   d#|--7--|   d#|--7--|
A#|--5--|   A#|--5--|   A#|--7--|   A#|--7--|
F#|--5--|   F#|--5--|   F#|--7--|   F#|--7--|
C#|--7--|   C#|--5--|   C#|--5--|   C#|--5--|
G#|--X--|   G#|--7--|   G#|--X--|   G#|--5--|
D#|--X--|   D#|--X--|   D#|--X--|   D#|--X--|

Eu nao vou mudar mais minha vida agora é 
Eu vou tentar entender, o que sai da tua boca
É só por isso, Vivo por isso, Vivo por isso, sem isso eu não vivo
Se voce quiser entender, entao me deixa eu te explicar
Rua de concreto, sangue nobre, água do mar
Rolé no meu Opala, pode acreditar, cheiro na mão brisa no olhar

Dedilhado:

d#|-----7------|------7------|-----7------|-----7------|
A#|-------5----|--------5----|-------7----|-------7----|
F#|---5-----5--|---5------5--|---7-----7--|---7-----7--|
C#|-7----------|-------------|-5----------|------------|
G#|------------|-7-----------|------------|-5----------|
D#|------------|-------------|------------|------------|


Tem pra manda trazer, tem
Tem pra manda buscar, vai
Tem pra mostrar poder, tem
Tem pra te alucinar
Eu nao fico dividido, Nao sei porque tenho partido
Sistema falido, já aconteceu comigo

Base: denovo

Eu nao vou mudar mais minha vida agora é outra
Eu vou tentar entender, o que sai da tua boca
É só por isso, Vivo por isso, Vivo por isso, sem isso eu nao 
vivo
Se voce quiser entender, entao me deixa eu te explicar
Rua de concreto, sangue nobre, água do mar
Rolé no meu Opala, pode acreditar, cheiro na mão brisa no olhar

Dedilhado: denovo

O que nao pode é essa situação
O que eu não gosto, eu me livro e digo não
O que nao pode é essa situação, Yeah

Dedilhado junto com o solo:


d#|-------------------------------------------|------------------------|     
A#|---------12---15---13-12-13----12-------12-|----12--13-12-----------|    
F#|-----14---------------------------14-------|--------------14--12----|    
C#|--14---------------------------------14----|-14------------------14-|     
G#|-------------------------------------------|------------------------|     
D#|-------------------------------------------|------------------------|   



d#|-------------------------------------------|------------------------|     
A#|---------12---15---13-12-13----12-------12-|----12--13-12-----------|    
F#|--12h14---------------------------14-------|--------------14--12----|    
C#|-------------------------------------14----|-14------------------14-|     
G#|-------------------------------------------|------------------------|     
D#|-------------------------------------------|------------------------| 



d#|-------------------------------------------|------------------------|     
A#|------12---13/15--13--12-----12------------|---12--13-12------------|    
F#|--14---------------------------------------|--------------14--12----|    
C#|---------------------------14--------------|-14------------------14-|     
G#|-------------------------------------------|------------------------|     
D#|-------------------------------------------|------------------------|     



d#|------------------------------------|-------------------------------|     
A#|------12---13/15--13--12-----12-----|----12--13-12------------------|    
F#|--14--------------------------------|--------------14--12----12/14~~|    
C#|---------------------------14-------|-14------------------14--------|     
G#|------------------------------------|-------------------------------|     
D#|------------------------------------|-------------------------------|

Comentários 3

  • walisson.matosmenezes walisson.matosmenezes: Postado em 25/05/2013 20:45

    aprendi com facilidade

  • Iago Iago: Postado em 04/03/2012 19:51

    solo da 1 versão errado

  • edimar16bahia edimar16bahia: Postado em 29/06/2011 17:25

    eu tenho o solo mais facil e mais parecido eu mesm q tirei de ouvido...quem quizer(msn:edimarppaiva@) so pedir

Composição: Chorão E Marcão
Esse não é o compositor? Avise-nos.
Contribuição: meksenas Correções: Flá_batera , ASA e mais 3 »
Exibir acordes »
publicidade
fechar