Quebra-mar

Charlie Brown Jr.

 Charlie Brown Jr. Compositor: Chorão / Marcão
Tom: A#
		

E|--66666666-66666666-66666666-66666666----
B|--44444444-44444444-66666666-66666666----
G|--44444444-44444444-66666666-66666666----    (2x - pausa e volta começa a cantar)
D|--66666666-44444444-44444444-xxxxxxxx----
A|-----------66666666----------44444444----
E|-----------------------------------------


Eu não vou mudar, mas minha vida agora é outra
Eu vou tentar entender, o que sai da tua boca
É só por isso, vivo por isso, vivo com isso, sem isso eu não vivo
Se você quiser entender, então me deixa eu te explicar
Rua de concreto, sangue nobre, água do mar
Rolé no meu impala, pode acreditar, dinheiro na mão brisa no olhar


E|-----6----------6----------6---------6----------
B|-------4----------4----------6---------6--------
G|---4-----4----4----4-----6----6----6-----6------
D|-6---------------------4------------------------       (2x)
A|------------6--------------------4-----------4--
E|------------------------------------------------


Tem pra manda trazer, tem
Tem pra manda buscar, vai
Tem pra mostrar poder, tem
Tem pra te alucinar
Eu não fico dividido,distraído, sei porque tomo partido
Sistema falido, já aconteceu comigo


E|--66666666-66666666-66666666-66666666----
B|--44444444-44444444-66666666-66666666----
G|--44444444-44444444-66666666-66666666----        (2x)
D|--66666666-44444444-44444444-xxxxxxxx----
A|-----------66666666----------44444444----
E|-----------------------------------------


Eu não vou mudar, mas minha vida agora é outra
Eu vou tentar entender, o que sai da tua boca
É só por isso, vivo por isso, vivo por isso, sem isso eu não vivo
Se você quiser entender, então me deixa eu te explicar
Rua de concreto, sangue nobre, água do mar
Rolé no meu impala, pode acreditar, dinheiro na mão brisa no olhar


E|-----6----------6----------6---------6----------
B|-------4----------4----------6---------6--------
G|---4-----4----4----4-----6----6----6-----6------
D|-6---------------------4------------------------       (mais algumas vezes, até o fim)
A|------------6--------------------4-----------4--
E|------------------------------------------------


O que não pode é essa situação
O que eu não gosto, eu me livro e digo não
O que não pode é essa situação, yeah



E|-------11----------------------------------------------------------11--|
B|---------------14-12-11-12-11-------11-----11-12-11--------------------|
G|---13-------13----------------13--------------------13-11----11-13-----|
D|---------------------------------13-----13----------------13-----------|
A|-----------------------------------------------------------------------|
E|-----------------------------------------------------------------------|





E|-----------------------------------------------------------------------|
B|----14-12-11-12-11-------11-----11-12-11-----------------11--12--12/14-|
G|-13----------------13--------------------13-11----11-13----------------|
D|----------------------13-----13----------------13----------------------|
A|-----------------------------------------------------------------------|
E|-----------------------------------------------------------------------|





E|-----------------------------------------------------------------------|
B|-12--11------11-----11-12-11------------------11--12--12/14--12--11----|
G|-----------------------------13-11-----11-13---------------------------|
D|---------13------13-----------------13-------------------------------13|
A|-----------------------------------------------------------------------|
E|-----------------------------------------------------------------------|





E|-----------------------------------------|
B|-11-----11-12-11-------------------------|
G|-----------------13-11----11/13~~~13/11--|
D|-----13----------------13----------------|
A|-----------------------------------------|
E|-----------------------------------------|
Texto Colunas
Alterar tom ½ tom ½ tom
afinação acordes na letra esconder tabs mais »
×

Comentários (3)

  • walisson.matosmenezes walisson.matosmenezes: Postado em 25/05/2013 20:45

    aprendi com facilidade

  • Iago Iago: Postado em 04/03/2012 19:51

    solo da 1 versão errado

  • edimar16bahia edimar16bahia: Postado em 29/06/2011 17:25

    eu tenho o solo mais facil e mais parecido eu mesm q tirei de ouvido...quem quizer(msn:edimarppaiva@) so pedir

Composição: Chorão E Marcão
Esse não é o compositor? Avise-nos.
Contribuição: meksenas Correções: Flá_batera , ASA e mais 3 »
  1. Tudo Que Você Quiser - Luan Santana Manteve-se 4.902 exibições
  2. Lepo Lepo - Psirico Manteve-se 3.570 exibições
  3. Mozão - Lucas Lucco Manteve-se 3.423 exibições
  4. Logo Eu - Jorge e Mateus Manteve-se 3.029 exibições
  5. Gaveta - Fernando e Sorocaba Manteve-se 2.722 exibições
  6. Só Os Loucos Sabem - Charlie Brown Jr. Manteve-se 2.470 exibições
  7. Pra Você - Onze:20 Manteve-se 2.088 exibições
  8. Tempo Perdido - Legião Urbana Manteve-se 1.989 exibições
  9. Fui Fiel - Gusttavo Lima Manteve-se 1.760 exibições
  10. Na Linha do Tempo - Victor e Leo Manteve-se 1.759 exibições
  1. Jorge e Mateus- Manteve-se 18.170 exibições
  2. Legião Urbana- Manteve-se 16.306 exibições
  3. Luan Santana- Manteve-se 14.644 exibições
  4. Charlie Brown Jr.- Manteve-se 14.217 exibições
  5. Fernandinho- Manteve-se 12.391 exibições
  6. Thalles Roberto- Manteve-se 9.162 exibições
  7. Aline Barros- Manteve-se 9.064 exibições
  8. Católicas- Manteve-se 8.769 exibições
  9. Victor e Leo- Manteve-se 8.687 exibições
  10. Bruno e Marrone- Manteve-se 8.333 exibições
Exibir acordes »

Cifras e tabs

Fórum Cifra Club

Aprenda

Cifra Club News

Mais Serviços Cifra Club ID

Studio Sol

©1996 - 2014 Cifra Club · o primeiro, maior e mais acessado do Brasil · 329 mil músicas · 5.9 milhões pessoas cadastradas

publicidade
fechar