Transar no escuro

Charlie Brown Jr.

 Charlie Brown Jr.
Tom: A
		
(intro) D9 E9 ( F#m A9 ) (6x) 
        D9 A9 E F#m D A9

(riff 1)

E|---------------------
B|---------------------
G|---------------------
D|---------------------
A|---------------------
E|--5-77--------------- 


F#             A9
O bom é ver o que
 se faz, mas
F#                A9
Ela gosta de Transar
 no escuro
F#                A9
No escuro a coisa ferve
       F#
 mais,   mas
               A9
O dom é ver o que se faz

   D9        A9   E
Passou, por mim
Fez que não
             F#
 me viu, mas
    D9      A9
Deixou pra mim
Riff 1
Um pouco mais
   daquele andar
   F#              A9
Eu sei, sigo a vontade então
F#             A9
 Eu fico a vontade então
F#              A9
 Me deixa à vontade então
F#
 Que eu te deixo à
      A9
  vontade então..yeah!!!

(riff Solo 4x)

(base no solo) F# A F# A

(riff 1)

(riff 2)

(riff 1)

(riff 2)

(riff solo)

E|------------------------------
B|---7----9---9----10---10------ (4x)


(riff 1)

E|----------------------------
B|----------------------------
G|----------------------------
D|-------------2--------------
A|----4-4-2------4-2-4-2-4----
E|-2--------5-----------------


(riff 2)

E|----------------------------
B|----------------------------
G|----------------------------
D|-------------2--------------
A|----4-4-2------4--2-2-4-----
E|-2--------5-----------------

Comentários 0

Exibir acordes »
publicidade
fechar