De olhos fechados

Oficina G3

 Oficina G3
Tom: D#
		

          Cm
E|-----------------------------------------------
B|--11/13--15--16--------------------------------
G|-----------------------------------------------
D|-----------------------------------------------
A|-----------------------------------------------
E|-----------------------------------------------


       Cm           G#             Eb          Bb
E|-----------------------------------------------
B|--13--15--16------------------16---------------
G|---------------15--13--12-12-----15--12--10~~--
D|-----------------------------------------------
A|-----------------------------------------------
E|-----------------------------------------------


       Cm           G#          Eb          Bb
E|-----------------------------------------------
B|--13--15--16--20b--18--16------18--16--15~-----
G|---------------------------15~-----------------
D|-----------------------------------------------
A|-----------------------------------------------
E|-----------------------------------------------


Cm   A#                                  Fm     D#/G    G#
   A hora se foi                       Vejo tão longe você
   D#                    Bb             Eb       Bb    Fm
O tempo não volta, não traz         Vencido, sem poder ver
Cm   A#                                      D#/G      G#
   O que se esqueceu                   O horizonte que traz
   D#                Bb                  D#       Bb    Cm
O vento tratou de levar             Quem não desistiu jamais

Fm         D#/G    G#
Vi em seus olhos a dor
   D#      Bb       Fm
De quem já não sabe amar
        D#/G      G#
E o coração que ficou
    D#  Bb           Cm
Marcado por não perdoar

(refrão)
    Cm      G#
Segure na minha mão
 Cm            Bb
Não olhe mais para traz
 Eb         G#         Cm
Os braços abertos estããão
      Bb               Cm
De quem decidiu te amar

  A#                D#
Como me esquecer de quem
                 Bb   Cm
Se entregou por amor?
  A#
Sofrendo por nós
  D#               Bb
O crime que não cometeu
Texto Colunas
Alterar tom ½ tom ½ tom
afinação acordes na letra esconder tabs mais »

Comentários (4)

  • MichaelXbaixista MichaelXbaixista: Postado em 15/08/2013 14:17

    muito facil o solinho

  • lvictor lvictor: Postado em 07/08/2012 22:57

    é cara, o oficina d+

  • d.d.g. d.d.g.: Postado em 07/08/2012 16:35

    toquei ela em G(sol)
    ficou muito boa

  • nicholaspinto nicholaspinto: Postado em 12/04/2012 18:30

    Muito boa essa música, alias todas as músicas DDG EXPERIENCE são boas

Composição: Juninho Afran
Esse não é o compositor? Avise-nos.
Contribuição: kobawski Correções: math_1970 e mais 1 »
  1. Tudo Que Você Quiser - Luan Santana Manteve-se 5.417 exibições
  2. Lepo Lepo - Psirico Manteve-se 3.901 exibições
  3. Mozão - Lucas Lucco Manteve-se 3.749 exibições
  4. Logo Eu - Jorge e Mateus Manteve-se 3.341 exibições
  5. Gaveta - Fernando e Sorocaba Manteve-se 2.999 exibições
  6. Só Os Loucos Sabem - Charlie Brown Jr. Manteve-se 2.698 exibições
  7. Pra Você - Onze:20 Manteve-se 2.391 exibições
  8. Tempo Perdido - Legião Urbana Manteve-se 2.189 exibições
  9. Fui Fiel - Gusttavo Lima Manteve-se 2.019 exibições
  10. Na Linha do Tempo - Victor e Leo Manteve-se 1.925 exibições
  1. Jorge e Mateus- Manteve-se 20.025 exibições
  2. Legião Urbana- Manteve-se 17.810 exibições
  3. Luan Santana- Manteve-se 15.901 exibições
  4. Charlie Brown Jr.- Manteve-se 15.521 exibições
  5. Fernandinho- Manteve-se 13.364 exibições
  6. Thalles Roberto- Manteve-se 10.046 exibições
  7. Aline Barros- Manteve-se 9.582 exibições
  8. Católicas- Manteve-se 9.431 exibições
  9. Victor e Leo- Manteve-se 9.367 exibições
  10. Gusttavo Lima- Manteve-se 8.996 exibições
Exibir acordes »

Cifras e tabs

Fórum Cifra Club

Aprenda

Cifra Club News

Mais Serviços Cifra Club ID

Studio Sol

©1996 - 2014 Cifra Club · o primeiro, maior e mais acessado do Brasil · 329 mil músicas · 5.9 milhões pessoas cadastradas

publicidade
fechar