Cifra Club

De Olhos Fechados

Oficina G3

Cifra: Principal
exibições 142.059
Tom: D#
E|-----------------------------------------------
B|--3/5--7--8--12--12--10--12--8--7--8--10~------
G|-----------------------------------------------
D|-----------------------------------------------
A|-----------------------------------------------
E|-----------------------------------------------

E|-----------------------------------------------
B|--5--7--8------------------8-------------------
G|---------------8~--6--5-5-----8--5--3~--------
D|-----------------------------------------------
A|-----------------------------------------------
E|-----------------------------------------------

E|-----------------------------------------------
B|--5--7--8--12b--10--8------10--8--7~-----------
G|------------------------8~---------------------
D|-----------------------------------------------
A|-----------------------------------------------
E|-----------------------------------------------


Cm   Bb       Ab             Gm
A hora se foi O tempo não volta, não traz

Cm  Bb            Ab             Gm
O que se esqueceu O vento tratou de levar

Fm         Gm      Ab      Bb
Vi em seus olhos a dor De quem já não sabe amar

Fm         Gm      Ab      Bb
E o coração que ficou Marcado por não perdoar

Cm   Bb       Ab             Gm
Como me esquecer de quem se entregou por amor?

Cm   Bb       Ab             Gm
Sofrendo por nós o crime que não cometeu

Fm       Gm       Ab    Bb
Vejo tão longe você Vencido, sem poder ver

Fm       Gm       Ab    Bb
O horizonte que traz Quem não desistiu jamais

(refrão)

Cm        Bb       Ab             Gm
Segure na minha mão Não olhe mais para traz

Cm        Bb       Ab        Gm
Os braços abertos estão de quem decidiu te amar
Acordes para:
    Colaboração e revisão:

    0 comentários

      mostrar mais comentários

      Conseguiu tocar?

      14tocaram0ainda não

      Grave um vídeo tocando De Olhos Fechados e mande pra gente!

      00:00 / 00:00
      outros vídeos desta música
      repetirqualidadeautomática
      Outro vídeos desta música
        00:00 / 00:00
        automática
        OK