Cifra Club

Minha Luta

Oficina G3

Cifra: Principal
exibições 136.026
Tom: G# (com acordes na forma de A#) Afinação: D G C F A D
D|--5-----7-----8---8-----7-----5---------5-5-------|---||
A|----5-----5-----5---5-----5-----5-------5---5-----|---||
F|------5-----5---------5-----5---------5-------5---|---||
C|------------------------------------5-----------5-|---||
G|--0---------------8---------------0-------0-------|---||
D|--------------------------------------------------|---||

D|5-----8---7h5-----5-----5-------------5h6h5-------|---||
A|--5-----5-----5-----5-----5---------5-------5-----|---||
F|----5-----------5-----5-----------5-----------5-7-|---||
C|------5-------------------------------------------|---||
G|0-------0-------------------7-6-5-----------------|---||
D|--------------------------------------------------|---||

Am           G/B          C9
Quando eu não posso conter
      F7+
As lágrimas que caem no chão
 Am           G/B           C9           G/C C9   Cm
Quando a dor e o medo tomam conta do meu coração

Bb9         Eb9  Ab9
Eu chamo por Você
Cm    Bb9         Eb9  Ab9
Eu grito por Você


Refrão:
C#m   B/D#   E        B/D#      C#m
Eu vou lutar até o dia amanhecer
    B/D#      E  B/D#      C#m  (A)
Esperando Tua mão vir me socorrer

Am           G/B          C9  F7
Quando me faltam palavras pra Te falar
Am           G/B           C9    G/C     C9   Cm
E quando a fé e a esperança começam a me deixar

  Bb9         Eb9  Ab9
Eu chamo por Você
 Cm    Bb9      Eb9  Ab9
Eu grito por Você

 C#m   B/D#   E        B/D#      C#m
Eu vou lutar até o dia amanhecer
     B/D#      E  B/D#      C#m  (D9)
Esperando Tua mão vir me socorrer

Solo:  D9   C#m    C#    B9

 D9                       C#m7
É o teu amor que me sustenta e me dá forças
 B9                      A9
Forças pra lutar, até o dia amanhecer

Am     G/B  C9        F7+
Eu vou lutar até o dia amanhecer
Am     G/B       C9
Esperando Tua mão ...

(Refrão)
Acordes para:
    Colaboração e revisão:
    • Alisson Gomes
    • Lumena Jesus
    • Luiz Josh

    0 comentários

      mostrar mais comentários

      Conseguiu tocar?

      12tocaram0ainda não

      Grave um vídeo tocando Minha Luta e mande pra gente!

      00:00 / 00:00
      outros vídeos desta música
      repetirqualidadeautomática
      Outro vídeos desta música
        00:00 / 00:00
        automática
        OK