Cifra Club

Água Viva

Oficina G3

Cifra: Principal
exibições 104.438
Tom: A#
[Afinação] C F Bb Eb G C

[Intro]

C|-------------------------------------------------------|
G|-------------------------------------------------------|
D#|--------------------------------4---------------------|
A#|---2--2-2-2----2--2-2-------4h5-----2--2-2-----4------|
F|----2--2-2-2----2--2-2------2--------2--2-2-5p2--5p2---|
C|--0-0--0-0-0--0-0--0-0-0h2h3-------0-0--0-0----0-------|

C|-------------------------------------------------------|
G|----P-----------------------3-3-3-3--------------------|
D#|--------------------4------3-3-3-3--------------------|
A#|----2--2-2-------4h5---2-2-3-3-3-3-2------------------|
F|-----2--2-2------2------2-2-3-3-3-3-2------------------|
C|---0-0--0-0-0h2h3-------0-0---------0------------------|

C|-------------------------------------------------------|
G|-------------------------------------------------------|
D#|--------------------4---------------------------------|
A#|----2--2-2-------4h5-----2--2-2-----4-----------------|
F|-----2--2-2------2--------2--2-2-5p2--5p2--------------|
C|---0-0--0-0-0h2h3-------0-0--0-0----0------------------|

C|-------------------------------------------------------|
G|-------------------------------------------------------|
D#|---------------------4--------------------------------|
A#|----2--2-2-------4h5----------------------------------|
F|-----2--2-2------2---------------------5h7-5-----5h7-5~|
C|---0-0--0-0-0h2h3-----------0h12~-0h3h5-----0h3h5------|

C|-------------------------------------------------------|
G|-------------------------------------------------------|
D#|------------------------------------------------------|
A#|-------------------------------11/14~-----------------|
F|--------------5h7-5-----5h7-5~--11/14~-----5h7-5-------|
C|---0h12~-0h3h5-----0h3h5-------0------0h3h5-----0h3h5--|
    
C|-------------------------------------------------------|
G|-------------------------------------------------------|
D#|------------------------------------------------------|
A#|----------11/14~--------------------------------------|
F|---5h7-5~--11/14~-----5h7-5-----5h7-5~-----------------|
C|----------0------0h3h5-----0h3h5-----------------------|

 Dm
Madrugada adentro, fuga do dia
Deserto do Qatar
  Cm
Procuro matar minha sede
Um Homem chega e paira Seu olhar
 Cm          G         G#
Vejo em Seu rosto uma luz
        C#       Cm
E o convido a ficar
     G
Sua voz me constrange
   G#       F/A  A#
Anseio escutar

Cm          Gm         F     G#
Água viva, minha sede vem matar
 D#             C#              F      G#
Vem comigo não deixe a vida me devorar
 Cm                  Gm
Pare um pouco, me abrace um pouco
         F    C#
Me faz descansar
 D#
Toca o meu rosto
    C#            F    G#
Me lembra como é bom amar

 Cm
Não compreendo esse tempo
Se o dia clama, não posso parar
 Cm
Na esteira dos dias
Meus pés cansados, mal podem acompanhar
 Cm         G
Porém insistente
G#         C#         Cm
Ele vem e tira-me o chão
  G           G#           F/A  A#
Anestesiado, decido me entregar

[Solo]  Cm
        A#  Fm  C#  G#

Nesse solo afinação padrão: E B G D A E

E|--------------------------------------------------------------|------------------------------------------------------------|
B|-----------------------11-8-----------------------------------|------------------------------------------------------------|
G|-/12--8-10--8p7----7-8----------8-10b12--8b10-----------------|----------------------------------------------8-8-10-10^11--|
D|----------------10----------/10---------------10--8-----------|----------------------------------------10------------------|
A|----------------------------------------------------10/8--6---|-----6-8^9p8p6-8b10---6---8^9^8^6--8-10----10---------------|
E|--------------------------------------------------------------|-8-8----------------8---8-----------------------------------|

E|-----------------------------------------------8-11-|
B|-----------------------------------8----11----------|
G|-10p8----8----8----8----10----8---------------------|
D|------10---10---10---10----10---10---10----10-------|
A|----------------------------------------------------|
E|----------------------------------------------------|

E|-13-8---------8-13-8---------8-13-8---------8-13-8--------4-8-4-------4-8-4-------4-8-4-------4-8-4-----------13-16-13-----|
B|------11-8-11--------11-8-11--------11-8-11--------11-4-6-------6-4-6-------6-4-6-------6-4-6-------6--/13-14----------14--|
G|---------------------------------------------------------------------------------------------------------------------------|
D|---------------------------------------------------------------------------------------------------------------------------|
A|---------------------------------------------------------------------------------------------------------------------------|
E|---------------------------------------------------------------------------------------------------------------------------|

E|----------13-16-13----------13-15-16-15-13---------------------------------------------------------------------------------|
B|-14-13-14----------14-13-14----------------16-14-13-16-14-13---------------------------------------------------------------|
G|-------------------------------------------------------------15-13-12-15-13-12----------13-12-10----------12-10-8----------|
D|-------------------------------------------------------------------------------15-13-11----------13-11-10---------11-10-8--|
A|---------------------------------------------------------------------------------------------------------------------------|
E|---------------------------------------------------------------------------------------------------------------------------|

E|---------------------------------------------------------------------------------------------------------------------------|
B|---------------------------------------------------------------------------------------------------------------------------|
G|-10-8-7--7^8p7----7p5---5p3---3-----------------------------------------------------------------------------8-10-12--8-10--|
D|---------------10-----8-----6---5^6p5---5---------------------------------------------------8-10-11-8-10-11----------------|
A|--------------------------------------8---6-8-5^6p5---5p3---3---------------8-10-11-8-10-11--------------------------------|
E|----------------------------------------------------8-----6---8-9-11-8-9-11------------------------------------------------|

E|--------------------9-11-13----------11-13-15-13-11----------------11-13-15----------13-15-16-|-16b18---15b16-13-----------|
B|----9-11-13-9-11-13---------11-13-14----------------14-13-11-13-14----------13-14-16----------|------------------16-16b18--|
G|-12-------------------------------------------------------------------------------------------|----------------------------|
D|----------------------------------------------------------------------------------------------|----------------------------|
A|----------------------------------------------------------------------------------------------|----------------------------|
E|----------------------------------------------------------------------------------------------|----------------------------|

                                                P.H
E|---------------------------------------------------|
B|-16b18--16--14--14--13--9--11b13--9b11--9--9-------|
G|----------------------------------------------10---|
D|---------------------------------------------------|
A|---------------------------------------------------|
E|---------------------------------------------------|

E|---------------------13-----t18--------13------------------------------------6------t13----------6-------------------------|
B|------------------11----t16-----t16-11-------------------------------------4----t11------t11--4----------------------------|
G|----------t15-----------------------------t15-----t15--------------t15----------------------------t15-----t15--------------|
D|---10-t13-----t13-----------------------------t13-----t13---10-t13-----t13----------------------------t13-----t13----------|
A|-8--------------------------------------------------------8---------------------------------------------------------11-t13-|
E|------------------------------------------------------------------------------------------------------------------9--------|

E|------------11-----t16-------11-----------11-t15/16\15-11p9--------------------------11-t16-11-16b18~--|
B|----------9----t14-----t14-9----t14-----9-------------------11-t16-11-t13/14\13-11p9-------------------|
G|------------------------------------t13----------------------------------------------------------------|
D|-t15---------------------------------------------------------------------------------------------------|
A|-----t13-----------------------------------------------------------------------------------------------|
E|-------------------------------------------------------------------------------------------------------|


 A#/D     Fm
Deixei de acreditar
             C#            G#
E em minhas mãos cansadas confiar
 A#      Fm
Cansado de lutar
            C#
Entrego em Suas mãos meus dias

G#  A#  Cm
A#/D  D#
Gm  G#
Acordes para:

    0 comentários

      mostrar mais comentários

      Conseguiu tocar?

      19tocaram0ainda não

      Grave um vídeo tocando Água Viva e mande pra gente!

      00:00 / 00:00
      outros vídeos desta música
      repetirqualidadeautomática
      Outro vídeos desta música
        00:00 / 00:00
        automática
        OK