Cifra Club

Aprenda

Água Viva

Oficina G3

Cifra: Principal (violão e guitarra)
tom: Ab
[Afinação] C F Bb Eb G C

[Intro]

E|------------------------------------------|
B|------------------------------------------|
G|---------------------------------4--------|
D|---2--2-2-2----2--2-2---------4h5---------|
A|---2--2-2-2----2--2-2-------2-------------|
E|-0-0--0-0-0--0-0--0-0-0h2h3---------------|

E|------------------------------------------|
B|------------------------------------------|
G|------------------------------------------|
D|---2--2-2-------4--------2--2-2-----------|
A|---2--2-2-5p2-----5p2----2--2-2-----------|
E|-0-0--0-0-----0--------0-0--0-0-----------|

E|------------------------------------------|
B|--------------------3-3-3-----------------|
G|-------------4------3-3-3-----------------|
D|---------4h5----2-2-3-3-3-2---------------|
A|-------2--------2-2-3-3-3-2---------------|
E|-0h2h3----------0-0-------0---------------|

E|------------------------------------------|
B|------------------------------------------|
G|---------------------4--------------------|
D|-----2--2-2-------4h5-----2--2-2-----4----|
A|-----2--2-2------2--------2--2-2-5p2--5p2-|
E|---0-0--0-0-0h2h3-------0-0--0-0----0-----|

E|------------------------------------------|
B|------------------------------------------|
G|----------------------4-------------------|
D|---2--2-2---------4h5---------------------|
A|---2--2-2-------2-----------------5h7-5---|
E|-0-0--0-0-0h2h3---------/12-0h3h5---------|

E|------------------------------------------|
B|------------------------------------------|
G|------------------------------------------|
D|------------------------------------------|
A|-------5h7-5~-----------5h7-5-------5h7-5~|
E|-0h3h5--------\12-0h3h5-------0h3h5-------|

E|------------------------------------------|
B|------------------------------------------|
G|------------------------------------------|
D|---11/14~---------------------------------|
A|---11/14~-------5h7-5---------------------|
E|-0--------0h3h5-------0h3h5---------------|

E|------------------------------------------|
B|------------------------------------------|
G|------------------------------------------|
D|-----------11/14~-------------------------|
A|---5h7-5~--11/14~-----5h7-5-----5h7-5~----|
E|----------0------0h3h5-----0h3h5----------|

[Primeira Parte]

 Dm
Madrugada adentro, fuga do dia
Deserto do Qatar
  Cm
Procuro matar minha sede
Um homem chega e paira Seu olhar
 Cm          G         Ab
Vejo em Seu rosto uma luz
        Db       Cm
E o convido a ficar
     G
Sua voz me constrange
   Ab       F/A  Bb
Anseio escutar

[Refrão]

Cm          Gm         F     Ab
Água viva, minha sede vem matar
 Eb             Db              F      Ab
Vem comigo não deixe a vida me devorar
 Cm                  Gm
Pare um pouco, me abrace um pouco
         F    Db
Me faz descansar
 Eb
Toca o meu rosto
    Db            F    Ab
Me lembra como é bom amar

[Segunda Parte]

 Cm
Não compreendo esse tempo
Se o dia clama, não posso parar
 Cm
Na esteira dos dias
Meus pés cansados, mal podem acompanhar
 Cm         G
Porém insistente
Ab         Db         Cm
Ele vem e tira-me o chão
     G          Ab           F/A  Bb
Anestesiado, decido me entregar

[Refrão]

Cm          Gm         F     Ab
Água viva, minha sede vem matar
 Eb             Db              F      Ab
Vem comigo não deixe a vida me devorar
 Cm                  Gm
Pare um pouco, me abrace um pouco
         F    Db
Me faz descansar
 Eb
Toca o meu rosto
    Db            F    Ab
Me lembra como é bom amar

[Solo]  Cm
        Bb  Fm  Db  Ab
        Bb  Fm  Db  Ab
        Bb  Fm  Db  Ab

E|------------------------------------------|
B|-----------------------11-8---------------|
G|-/12--8-10--8p7----7-8----------8-10b12---|
D|----------------10----------/10-----------|
A|------------------------------------------|
E|------------------------------------------|

E|------------------------------------------|
B|------------------------------------------|
G|-8b10-------------------------------------|
D|------10--8-------------------------------|
A|------------10/8--6------6-8h9p8p6-8b10---|
E|---------------------8-8------------------|

E|------------------------------------------|
B|------------------------------------------|
G|---------------------------8-8-10-10h11---|
D|---------------------10-------------------|
A|---6---8h9p8h6--8-10----10----------------|
E|-8---8------------------------------------|

E|------------------------------------------|
B|------------------------------------------|
G|-10p8----8----8----8----10----------------|
D|------10---10---10---10-------------------|
A|------------------------------------------|
E|------------------------------------------|

E|--------------------8-11------------------|
B|---------8----11--------------------------|
G|----8-------------------------------------|
D|-10---10---10----10-----------------------|
A|------------------------------------------|
E|------------------------------------------|

E|-13-8--------8-13-8---------8-13-8--------|
B|------11-8-11-------11-8-11--------11-8-11|
G|------------------------------------------|
D|------------------------------------------|
A|------------------------------------------|
E|------------------------------------------|

E|--8-13-8--------4-8-4-------4-8-4---------|
B|---------11-4-6-------6-4-6-------6-4-6---|
G|------------------------------------------|
D|------------------------------------------|
A|------------------------------------------|
E|------------------------------------------|

E|--4-8-4-------4-8-4-----------13-16-13----|
B|--------6-4-6-------6--/13-14----------14-|
G|------------------------------------------|
D|------------------------------------------|
A|------------------------------------------|
E|------------------------------------------|

E|----------13-16-13----------13-15-16-15-13|
B|-14-13-14----------14-13-14---------------|
G|------------------------------------------|
D|------------------------------------------|
A|------------------------------------------|
E|------------------------------------------|

E|------------------------------------------|
B|-16-14-13-16-14-13------------------------|
G|------------------15-13-12-15-13-12-------|
D|------------------------------------------|
A|------------------------------------------|
E|------------------------------------------|

E|------------------------------------------|
B|------------------------------------------|
G|----------13-12-10---------12-10-8--------|
D|-15-13-11---------13-11-10---------11-10-8|
A|------------------------------------------|
E|------------------------------------------|

E|------------------------------------------|
B|------------------------------------------|
G|-10-8-7--7/8p7----7p5---5p3---3-----------|
D|---------------10-----8-----6---5h6p5---5-|
A|--------------------------------------8---|
E|------------------------------------------|

E|------------------------------------------|
B|------------------------------------------|
G|------------------------------------------|
D|------------------------------------------|
A|-6-8-5h6p5---5p3---3---------------8-10-11|
E|-----------8-----6---8-9-11-8-9-11--------|

E|------------------------------------------|
B|------------------------------------------|
G|------------------------8-10-12--8-10-----|
D|--------8-10-11-8-10-11-------------------|
A|8-10-11-----------------------------------|
E|------------------------------------------|

E|--------------------9-11-13---------------|
B|----9-11-13-9-11-13---------11-13-14------|
G|-12---------------------------------------|
D|------------------------------------------|
A|------------------------------------------|
E|------------------------------------------|

E|-11-13-15-13-11----------------11-13-15---|
B|---------------14-13-11-13-14----------13-|
G|------------------------------------------|
D|------------------------------------------|
A|------------------------------------------|
E|------------------------------------------|

E|-------13-15-16--16b18--15b16-13----------|
B|14-16----------------------------16-16b18-|
G|------------------------------------------|
D|------------------------------------------|
A|------------------------------------------|
E|------------------------------------------|
                                       P.H
E|------------------------------------------|
B|-16b18--6-14-14-13-9-11b13-9b11-9-9-------|
G|-------------------------------------10---|
D|------------------------------------------|
A|------------------------------------------|
E|------------------------------------------|

E|---------------------13------18--------13-|
B|------------------11-----16------16-11----|
G|-----------15-----------------------------|
D|---10--13------13-------------------------|
A|-8----------------------------------------|
E|------------------------------------------|

E|-----------------------------------6------|
B|---------------------------------4-----11-|
G|-15------15---------------15--------------|
D|-----13------13---10--13------13----------|
A|----------------8-------------------------|
E|------------------------------------------|

E|-13----------6----------------------------|
B|------11--4-------------------------------|
G|---------------15------15-----------------|
D|----------------------13------13----------|
A|-----------------------------------11--13-|
E|---------------------------------9--------|

E|------------11------16-------11-----------|
B|----------9-----14------14-9-----14-----9-|
G|-------------------------------------13---|
D|--15--------------------------------------|
A|------13----------------------------------|
E|------------------------------------------|

E|11--15/16\15-11p9-------------------------|
B|------------------11-16-11-13/14\13-11p9--|
G|------------------------------------------|
D|------------------------------------------|
A|------------------------------------------|
E|------------------------------------------|

E|-11--16-11-16b18~-------------------------|
B|------------------------------------------|
G|------------------------------------------|
D|------------------------------------------|
A|------------------------------------------|
E|------------------------------------------|

[Ponte]

 Bb/D     Fm
Deixei de acreditar
             Db            Ab
E em minhas mãos cansadas confiar
 Bb      Fm
Cansado de lutar
            Db
Entrego em Suas mãos meus dias

[Refrão]

Cm          Gm         F     Ab
Água viva, minha sede vem matar
 Eb             Db              F      Ab
Vem comigo não deixe a vida me devorar
 Cm                  Gm
Pare um pouco, me abrace um pouco
         F    Db
Me faz descansar
 Eb
Toca o meu rosto
    Db            F    Ab
Me lembra como é bom amar

Cm          Gm         F     Ab
Água viva, minha sede vem matar
 Eb             Db              F      Ab
Vem comigo não deixe a vida me devorar
 Cm                  Gm
Pare um pouco, me abrace um pouco
         F    Db
Me faz descansar
 Eb
Toca o meu rosto
    Db            F    Ab
Me lembra como é bom amar
Composição de Alexandre Aposan / Duca Tambasco / Jean Carllos / Juninho Afram / Mauro Henrique
138.199 exibições
    • ½ Tom
    • A
    • Bb
    • B
    • C
    • Db
    • D
    • Eb
    • E
    • F
    • F#
    • G
    • Ab
  • Adicionar à lista

    0 comentários

    Ver todos os comentários
    00:00 / 00:00
    Outros vídeos desta música
    Repetir Qualidade Automático
    Outros vídeos desta música
    00:00 / 00:00
    Automático

    Cifra Club Pro

    Aproveite o Cifra Club com benefícios exclusivos e sem anúncios
    Cifra Club Pro
    Aproveite o Cifra Club com benefícios exclusivos e sem anúncios
    OK