Cifra Club

Água Viva

Oficina G3

Cifra: Principal
exibições 101.393
Tom: A
[Afinação] C F Bb Eb G C

[Intro]

E|------------------------------------------------------|
B|------------------------------------------------------|
G|-------------------------------4----------------------|
D|---2--2-2-2----2--2-2-------4h5-----2--2-2-----4------|
A|---2--2-2-2----2--2-2------2--------2--2-2-5p2--5p2---|
E|-0-0--0-0-0--0-0--0-0-0h2h3-------0-0--0-0----0-------|

E|------------------------------------------------------|
B|---------------------------3-3-3-3--------------------|
G|--------------------4------3-3-3-3--------------------|
D|----2--2-2-------4h5---2-2-3-3-3-3-2------------------|
A|----2--2-2------2------2-2-3-3-3-3-2------------------|
E|--0-0--0-0-0h2h3-------0-0---------0------------------|

E|------------------------------------------------------|
B|------------------------------------------------------|
G|--------------------4---------------------------------|
D|----2--2-2-------4h5-----2--2-2-----4-----------------|
A|----2--2-2------2--------2--2-2-5p2--5p2--------------|
E|--0-0--0-0-0h2h3-------0-0--0-0----0------------------|

E|------------------------------------------------------|
B|------------------------------------------------------|
G|--------------------4---------------------------------|
D|----2--2-2-------4h5----------------------------------|
A|----2--2-2------2---------------------5h7-5-----5h7-5~|
E|--0-0--0-0-0h2h3-----------0h12~-0h3h5-----0h3h5------|

E|------------------------------------------------------|
B|------------------------------------------------------|
G|------------------------------------------------------|
D|-------------------------------11/14~-----------------|
A|-------------5h7-5-----5h7-5~--11/14~-----5h7-5-------|
E|--0h12~-0h3h5-----0h3h5-------0------0h3h5-----0h3h5--|
    
E|------------------------------------------------------|
B|------------------------------------------------------|
G|------------------------------------------------------|
D|----------11/14~--------------------------------------|
A|--5h7-5~--11/14~-----5h7-5-----5h7-5~-----------------|
E|---------0------0h3h5-----0h3h5-----------------------|

 Dm
Madrugada adentro, fuga do dia
Deserto do Qatar
  Cm
Procuro matar minha sede
Um Homem chega e paira Seu olhar
 Cm          G         G#
Vejo em Seu rosto uma luz
        C#       Cm
E o convido a ficar
     G
Sua voz me constrange
   G#       F/A  A#
Anseio escutar

Cm          Gm         F     G#
Água viva, minha sede vem matar
 D#             C#              F      G#
Vem comigo não deixe a vida me devorar
 Cm                  Gm
Pare um pouco, me abrace um pouco
         F    C#
Me faz descansar
 D#
Toca o meu rosto
    C#            F    G#
Me lembra como é bom amar

 Cm
Não compreendo esse tempo
Se o dia clama, não posso parar
 Cm
Na esteira dos dias
Meus pés cansados, mal podem acompanhar
 Cm         G
Porém insistente
G#         C#         Cm
Ele vem e tira-me o chão
  G           G#           F/A  A#
Anestesiado, decido me entregar

[Solo]  Cm
        A#  Fm  C#  G#

 A#/D     Fm
Deixei de acreditar
             C#            G#
E em minhas mãos cansadas confiar
 A#      Fm
Cansado de lutar
            C#
Entrego em Suas mãos meus dias

G#  A#  Cm
A#/D  D#
Gm  G#
Acordes para:

    0 comentários

      mostrar mais comentários

      Conseguiu tocar?

      17tocaram0ainda não

      Grave um vídeo tocando Água Viva e mande pra gente!

      00:00 / 00:00
      outros vídeos desta música
      repetirqualidadeautomática
      Outro vídeos desta música
        00:00 / 00:00
        automática
        OK