Cifra Club

Perfeito Amor

Oficina G3

Cifra: Principal
exibições 328.816
Tom: D#
Intro 2x: G  Bb  F

E|------------------------|------------------------|
B|------------------------|------------------------|
G|-5/7--5h7p5p4-5-4-2-0---|------------------------|
D|------------------------|------------------------|
A|------------------------|------------------------|
E|------------------------|------------------------|
           h                  h.a.......
E|------------------------|------------------------|
B|------------------------|------------------------|
G|-0-2-3------------------|-3/7-----9-5-4----------|
D|------------------------|------------------------|
A|------------------------|------------------------|
E|------------------------|------------------------|
                                    h
E|------------------------|----10------------------|
B|------------------------|------------------------|
G|-4-2/3--2/3/2--0-2-0----|------------------------|
D|---------------------3-0|--3-------0-2-3---------|
A|------------------------|------------------------|
E|------------------------|------------------------|

E|------------------------|---------------3--------|
B|------------------------|---------------3--------|
G|------------------------|---------------0--------|
D|-2-0---0/2/0---0--------|-(0)--2-3-2-0--0--------|
A|-----0-------3----------|---------------x--------|
E|------------------------|---------------3--------|

G                     Bb   F     G
 se todos vivessem o amo...o...or
      Bb       F
 como deus o criou
G                          Bb    F
 o amor que não guarda ranco.....or
G                Bb       F
 tudo espera e suporta a dor

Bb          F/A  Gm
 se não houver amor
      F             Bb
 não vale apena viver
         F/A     Gm
 o verdadeiro amor
    F                  Eb    D D D
 só vive quem anda com deus

F    Bb     Dm       C                 F
 o amor de deus pra sempre eu quero viver
     Bb     Dm    C                     Bb9
 perfeito amor, eterna essência de deus

Bb          F/A  Gm
 se não houver amor
      F             Bb
 não vale apena viver
         F/A     Gm
 o verdadeiro amor
    F                  Eb    D D D
 só vive quem anda com deus

F    Bb     Dm       C                 F
 o amor de deus pra sempre eu quero viver
     Bb     Dm    C                     Bb9
 perfeito amor, eterna essência de deus

Final : Bb9  Gm  G#  Fm  G

solo:
                  h
E|------------------------|------------------------|
B|----------5-8-5-6-5-----|------------------------|
G|--3-5-3-----------------|-7-5----5-4-------------|
D|------------------------|-----7------------------|
A|------------------------|------------------------|
E|------------------------|------------------------|
                    h
E|------------------------|------------------------|
B|------2-3-5---5-6-5-----|-----5------------------|
G|-3-5--------------------|--7-----7--5---5/7------|
D|------------------------|--------------------5/7-|
A|------------------------|------------------------|
E|------------------------|------------------------|
        p                      h
E|------------------------|------------------------|
B|-----6-5-----5-6-8------|--5-6-5-----------------|
G|-5--------7-------------|----------7--5/2--------|
D|------------------------|------------------------|
A|------------------------|------------------------|
E|------------------------|------------------------|
       p         h
E|------------------------|------------------|
B|------------------------|------------------|
G|------------------------|------------------|
D|--5-3-2-----2-3-5-------|-2/3/2------------|
A|---------5--------------|--------5-3/1-----|
E|------------------------|------------------|

E|-------------|------------|---------------|----8/10---|
B|-----6-------|-8-----6----|-8------10-8---|-----------|
G|--3----5-3---|----7----7--|----10---------|-----------|
D|-------------|------------|---------------|-----------|
A|-------------|------------|---------------|-----------|
E|-------------|------------|---------------|-----------|
              h           p       p        h           
E|-8-10-8--7-|--6-5--------------------------------1--|
B|-----------|---------8--6-5-----5-6-5------------3--|
G|-----------|------------------7---------7-5\2/3--3--|
D|-----------|-------------------------------------3--|
A|-----------|-------------------------------------1--|
E|-----------|----------------------------------------|

0 comentários

    mostrar mais comentários

    Conseguiu tocar?

    30tocaram3ainda não

    Grave um vídeo tocando Perfeito Amor e mande pra gente!

    00:00 / 00:00
    outros vídeos desta música
    repetirqualidadeautomática
    Outro vídeos desta música
      00:00 / 00:00
      automática
      OK