Cifra Club

Aprenda

Perfeito Amor

Oficina G3

Cifra: Principal (violão e guitarra)
tom: A
[Intro] G  Bb  F  G  Bb  F
        G  Bb  F  G  Bb  F

E|---------------------------------------------------|
B|---------------------------------------------------|
G|-5/7--5h7p5p4-5-4-2-0------------------------------|
D|---------------------------------------------------|
A|---------------------------------------------------|
E|---------------------------------------------------|

E|---------------------------------------------------|
B|---------------------------------------------------|
G|-0-2-3-------------------3/7-----9-5-4-------------|
D|---------------------------------------------------|
A|---------------------------------------------------|
E|---------------------------------------------------|

E|----------------------------10---------------------|
B|---------------------------------------------------|
G|-4-2/3--2/3/2--0-2-0-------------------------------|
D|---------------------3-0--3-------0-2-3------------|
A|---------------------------------------------------|
E|---------------------------------------------------|

E|---------------------------------------3-----------|
B|---------------------------------------3-----------|
G|---------------------------------------0-----------|
D|-2-0---0/2/0---0----------0---2-3-2-0--0-----------|
A|-----0-------3-------------------------x-----------|
E|---------------------------------------3-----------|

    G                 Bb  F   G
Se todos vivessem o amo...o...or
      Bb        F
Como Deus o criou
    G                     Bb    F
O amor que não guarda ranco.....or
 G               Bb      F
Tudo espera e suporta a dor

( G  Bb  F  G  Bb  F )

    G                 Bb  F   G
Se todos vivessem o amo...o...or
      Bb        F
Como Deus o criou
    G                     Bb    F
O amor que não guarda ranco.....or
 G               Bb      F
Tudo espera e suporta a dor

Bb           F/A  Gm
  Se não houver amor
           F/A     Bb
Não vale apenas viver
        F/A     Gm
O verdadeiro amor
    F                  Eb   D
Só vive quem anda com Deus

F   Bb     Dm       C                 F
O amor de Deus pra sempre eu quero viver
    Bb     Dm    C
Perfeito amor, eterna essência de Deus
F   Bb     Dm       C                 F
O amor de Deus pra sempre eu quero viver
    Bb     Dm    C                 Bb9
Perfeito amor, eterna essência de Deus

[Solo] G  Bb  F  G  Bb  F
       G  Bb  F  G  Bb  F

Bb           F/A  Gm
  Se não houver amor
           F/A     Bb
Não vale apenas viver
        F/A     Gm
O verdadeiro amor
    F                  Eb   D
Só vive quem anda com Deus

F   Bb     Dm       C                 F
O amor de Deus pra sempre eu quero viver
    Bb     Dm    C
Perfeito amor, eterna essência de Deus
F   Bb     Dm       C                 F
O amor de Deus pra sempre eu quero viver
    Bb     Dm    C
Perfeito amor, eterna essência de Deus

F   Bb     Dm       C                 F
O amor de Deus pra sempre eu quero viver
    Bb     Dm    C
Perfeito amor, eterna essência de Deus
F   Bb     Dm       C                 F
O amor de Deus pra sempre eu quero viver
    Bb     Dm    C                 Bb9
Perfeito amor, eterna essência de Deus

[Final] Bb9  Gm  G#  Fm  G
Composição de Duca Tambasco / Juninho Afram / PG
378.923 exibições
    • ½ Tom
    • A
    • Bb
    • B
    • C
    • Db
    • D
    • Eb
    • E
    • F
    • F#
    • G
    • Ab
  • Adicionar à lista

    0 comentários

    Ver todos os comentários
    00:00 / 00:00
    Outros vídeos desta música
    Repetir Qualidade Automático
    Outros vídeos desta música
    00:00 / 00:00
    Automático

    Cifra Club Pro

    Aproveite o Cifra Club com benefícios exclusivos e sem anúncios
    Cifra Club Pro
    Aproveite o Cifra Club com benefícios exclusivos e sem anúncios
    OK