Cifra Club

Aprenda

Incondicional

Oficina G3

Cifra: Principal (violão e guitarra)
Tom: G
Afinação: D A D G A D 

[Intro]

           Harm...   Harm...
E|----------------------------0----------------------|
B|-------0-12-------12----------0---------0-------0--|
G|-----0------12-------12---------0-------------0----|
D|-2h4-----------12-------12------------0---2h4------|
A|-0-------8------------------------0h3--------------|
E|-0----------------8--------------------------------|
           Harm...   Harm...
E|---------------12-----------0----------------------|
B|-------0-12-------12----------0---------0----------|
G|-----0------12-------12---------0---------0--------|
D|-2h4--------------------12------------0------------|
A|-0-------8------------------------0h3--------------|
E|-0----------------8-------------------------3b-----|

D5            C6(9)      G9             G9/B  C6(9)
  Troquei as cores ao redor pra te mostrar
D5       C6(9)      G9         G9/B      C6(9)
  Criei formas pra fazer você vê e entender
D5          C6(9)          G9     G9/B  C6(9)
  Eu tentei  falar, dando sons a Minha voz
D5            C6(9)            G9           G9/B  C6(9)
  Você não Me ouviu, mas continuo a te esperar
  D5                      C6(9)
E|-----------------------------------------|
B|--------0--------------------------------|
G|-------0---------------------------------|
D|-----4----2h4p2-----0h2p0---0------------|
A|---0------------3-3-------3--------------|
E|-0---------------------------------------|
    G9        G9/B         C6(9)
E|-----------------------------------------|
B|-------0-----------0---------------------|
G|-----0---0-------0---0---------0---------|
D|---0-------0---0-------0-----0-----------|
A|-------------2-----------2/3-------------|
E|-3---------------------------------------|
    D5         C6(9)
E|-----------------------------------------|
B|-----------------------------------------|
G|-----0---------0-------------------------|
D|-2h4---2h4p2-----0---0h2p0---0-----------|
A|-0-----------3-----3-------3-------------|
E|-0---------------------------------------|
[Refrão]

D5      A4        Em7(11)
Eu acredito em você
D5
Ouça a Minha voz
 D5              A4
Te estendo Minhas mãos
      G4(9) Em7(11)  D5
Meu amor     é incondicional

D5         C6(9)  G9              G9/B      C6(9) D5
  Quero fazer nascer o sol de um novo dia pra você
    C6(9)                      G9     G9/B   C6(9)
Trazer a Minha luz pra te mostrar os Meus caminhos
D5          C6(9)       G9            G9/B   C6(9)
 Eu vou estar sempre aqui, esperando por você
D5        C6(9)          G9     G9/B  C6(9)
  Eu não Me cansarei de te mostrar

[Refrão]

D5      A4        Em7(11)
Eu acredito em você
D5
Ouça a Minha voz
 D5              A4
Te estendo Minhas mãos
      G4(9) Em7(11)  D5
Meu amor     é incondicional

[Passagem - dedilhado]

        D5          Bm7           A4
E|------2--/5---4---------------------------------0-|
B|----5------------------0-----------0------------0-|
G|---------/3---2------0---0-------0---0-------0--0-|
D|2/4--------------2h4-------4---4-------4---4----4-|
A|-----------------------------2-----------0--------|
E|--------------------------------------------------|
        C6(9/4+)
E|------------------0---0---------------------------|
B|-0----------0-----------0-------------------------|
G|---0-----0----0-----0-----0-----------------------|
D|-------4--4-----4---------------------------------|
A|-----3--------------------------------------------|
E|----------------------------0---------------------|
    D5        Bm7         A4            C6(9/4+)
E|--------------------------------0-----------------|
B|-------0-----------0------------0--0--------------|
G|-----0---0-------0---0-------0--0----0------------|
D|-2h4-------4---4-------4---4----4------4----------|
A|-------------2-----------0-------------3----------|
E|--------------------------------------------------|
D5                  Bm7              A4         C6(9/4+)
  Quanto tempo mais, qual a prova maior que a cruz
D5                    Bm7                A4      C6(9/4+)
  Me entreguei por ti, esta é a prova maior de amor (2x)

[Refrão]

D5      A4        Em7(11)
Eu acredito em você
D5
Ouça a Minha voz
 D5                A4
Te estendo Minhas mãos
      G4(9) Em7(11)       D5
Meu amor     é incondicional
Composição de Josué Alves / Marcelo Elias / Mauro Henrique
914.335 exibições
  • Simplificar cifra
    • ½ Tom
    • A
    • Bb
    • B
    • C
    • Db
    • D
    • Eb
    • E
    • F
    • F#
    • G
    • Ab
  • Adicionar à lista

    0 comentários

    Mostrar mais comentários
    00:00 / 00:00
    outros vídeos desta música
    repetir qualidade Automático
    Outros vídeos desta música
    00:00 / 00:00
    Automático
    Capítulos
    • Início
    • Afinação
    • Tocando a música
    • Tocando Introdução
    • Ensinando Introdução
    • Acordes da música
    • Tocando Primeira Parte
    • Ensinando Primeira Parte
    • Tocando Refrão e Segunda Parte
    • Ensinando Ritmo
    • Acordes da Terceira Parte
    • Tocando Terceira Parte
    • Ensinando Terceira Parte
    • Encerramento

    Cifra Club Pro

    Aproveite o Cifra Club com benefícios exclusivos e sem anúncios
    Cifra Club Pro
    Aproveite o Cifra Club com benefícios exclusivos e sem anúncios
    OK