Cifra Club

Incondicional

Oficina G3

Cifra: Original-completa
exibições 54.137
Tom: A#
D|--------------------------------------------0-----------------------------------------|
A|------------0-------12*-------------12*------0---------0---------0--------------------|
G|-----------0---------------12*--------12*-----0-------0---------0---------------------|
D|------2h4------------8*------12*--------12*----------------2h4------------------------|
A|-----0---------------8*----------------------------0h3--------------------------------|
D|----0---------------------------------------------------------------------------------|

D|-----------------------------------------------0--------------------------------------|
A|------------0-------12*------------------12*----0--------0----------------------------|
G|-----------0--------------12*-------8*----12*----0------0-----------------------------|
D|------2h4------------8*--------------------12*----------------------------------------|
A|-----0---------------8*-----------------------------0h3-------------------------------|
D|----0--------------------------------------------------------3---0--------------------|

(*Fazer em harmonia - só encostar o dedo , não apertar) .

D|--------|--------|--------|--------|---------|---------|
A|---0----|---0----|--------|---0----|----0----|---0-----|
G|--0-0---|--0-0---|--------|--0-0---|---0-0---|--0-0----|
D|-0------|--------|-2h4-0--|--------|---------|---------|    repete o solo na 1º parte
A|--------|-3------|--------|--------|-2-------|-3-------|
D|--------|--------|--------|-3------|---------|---------|

 D           C           F             G/B
Troquei as cores, ao redor pra te mostrar
 D     C              F        G/B
Criei formas, pra fazer você ver e entender
 D           C           F     G/B
Eu tentei falar , dando sons à minha voz
 D             C             F            G/B
Você não me ouviu , mas continuo a te esperar ...

Refrão:
D       Am        Em   D
Eu acredito em você , ouça a minha voz
D                 Am         F  G/B          D
Te estendo minha mão , meu amor é incondicional !

D        C      F           G/B
Quero fazer nascer um novo dia pra você
D               C        F              G/B
Trazer a minha luz , pra te mostrar os meus caminhos
D         C           F            G/B
Eu vou estar sempre aqui esperando por você
D          C            F      G/B
Eu não me cansarei , de te mostrar que ...

(Refrão)

Solo: D  Bm  A  C

Solo guitarra ( Juninho )

OBS: NO 3//5, TOCA-SE O 3 E DEIXA SOAR UM POUCO E AÍ FAZ O SLIDE, POR ISSO O //.

E|-----------------|------------|----------------|--------------------------------------------
B|----3//5--6/8-7~-|----8-10-7~-|-10b12r10-10~~--|-8/10-8--10b12r10b12---t14p12p10h12b14~~~~--
G|-----------------|-/9---------|----------------|--------------------------------------------
D|-/4--------------|------------|----------------|--------------------------------------------
A|-----------------|------------|----------------|--------------------------------------------
E|-----------------|------------|----------------|--------------------------------------------

       (2º Parte)             C9
D|-------------------0-|-------|
A|----0------0-------0-|-------|
G|---0-0----0-0----0-0-|-------|
D|--3---3--3---3--3----|-------|
A|---------------------|-------|
D|---------------------|-------|

D                Bm                 A            C
Quanto tempo mais . qual a prova maior , que a cruz ?
D                  Bm                   A        C
Me entreguei por ti , essa é a prova maior , de amor !

(Refrão)

D       Am        Em   D
Eu acredito em você , ouça a minha voz
D                 Am         F  G/B          D
Te estendo minha mão , meu amor é incondicional !
Acordes para:
    Colaboração e revisão:

    0 comentários

      mostrar mais comentários

      Conseguiu tocar?

      21tocaram0ainda não

      Grave um vídeo tocando Incondicional e mande pra gente!

      00:00 / 00:00
      outros vídeos desta música
      repetirqualidadeautomática
      Outro vídeos desta música
        00:00 / 00:00
        automática
        Capítulos
        • Início
        • Tocando a música
        • Acordes da música
        • Ensinando Ritmo da música
        • Encerramento
        OK