Cifra Club

Aprenda

Incondicional

Oficina G3

Cifra: Versão 5 (violão e guitarra)
tom: D
D |-------------------------------------------|
A |---------0----12*--------------12*---------|
G |-------0-------------12*-----------12*-----|
D |--3/4---------------------12*----------12*-|
A |--5------------8---------------------------|
D |--0-----------------------------8----------|

D |--0------------------------------|
A |-----0--------------0----------0-|
G |--------0-------------------0----|
D |-----------------2-----2/4-------|
A |------------2/3------------------|
D |---------------------------------|

D |---------------------------12*--------------|
A |----------0----12*--------------12*---------|
G |-------0--------------12*-----------12*-----|
D |--3/4-----------------------------------12*-|
A |--5-------------8---------------------------|
D |--0------------------------------8----------|

D |---0------------------------------|
A |------0-----------------0---------|
G |---------0-----------0------------|
D |------------------2---------------|
A |-------------2h3------------------|
D |---------------------------3b---0-|

Composição de Josué Alves / Marcelo Elias / Mauro Henrique
Colaboração e revisão:
  • Silas Bispo
15.898 exibições
  • Simplificar cifra
    • ½ Tom
    • A
    • Bb
    • B
    • C
    • Db
    • D
    • Eb
    • E
    • F
    • F#
    • G
    • Ab
  • Adicionar à lista

    0 comentários

    Ver todos os comentários
    00:00 / 00:00
    outros vídeos desta música
    repetir qualidade Automático
    Outros vídeos desta música
    00:00 / 00:00
    Automático
    Capítulos
    • Início
    • Tocando a música
    • Acordes da música
    • Ensinando Ritmo da música
    • Encerramento

    Cifra Club Pro

    Aproveite o Cifra Club com benefícios exclusivos e sem anúncios
    Cifra Club Pro
    Aproveite o Cifra Club com benefícios exclusivos e sem anúncios
    OK