Cifra Club

O Que Sua Glória Fez Comigo

Fernanda Brum

Cifra: Principal (violão e guitarra)
exibições 1.129.370
Tom: Dm
[Intro]

E|---1---0---------------0---------------|
B|------------3----1----------3---1------|
G|---------------------------------------|
D|---------------------------------------|
A|---------------------------------------|
E|---------------------------------------|

E|-1---0---------------------------------|
B|----------1---------3----5----6--------|
G|---------------2-----------------------|
D|--------------------3----5----7--------|
A|---------------------------------------|
E|---------------------------------------|

E|---1---0---------------0---------------|
B|------------3----1----------3---1------|
G|---------------------------------------|
D|---------------------------------------|
A|---------------------------------------|
E|---------------------------------------|

E|-1--0----------------------------------|
B|--------1-------3----------------------|
G|------------2--------------------------|
D|----------------3----------------------|
A|---------------------------------------|
E|---------------------------------------|

[Intro] Bb9  C/Bb  Am6  Dm
        Bb9  C/Bb  Am6  Dm

Bb9            Gm7
    Eu me rasgo  por inteiro
Am6                Dm7
   Faço tudo, mas vem novamente    
Bb9                 Gm7
    Eu mergulho na mirra ardente
Am6                      Dm7
    Mas peço que Tua presença aumente

( Bb9  Gm7  Am7/4 )
( Bb9  Gm7  Am7/4 )

E|----------------------------------|
B|-10-8-6-10/8----------------------|
G|--------------10-9-10-------------|
D|---------------------------10-12--|
A|-----------------------12---------|
E|----------------------------------|

E|----------------------------------|
B|-10-8-6-10/8----------------------|
G|--------------10-9-10-------------|
D|---------------------------10-12--|
A|-----------------------12---------|
E|----------------------------------|

Bb9            Gm7
    Eu me rasgo  por inteiro
Am                 Dm7
   Faço tudo, mas vem novamente     
Bb9                 Gm7
    Eu mergulho na mirra ardente
Am                       Dm7
    Mas peço que Tua presença aumente

Bb9                      Gm7            C
    E se eu passar pelo fogo não temerei                                            
                   Am               Bb9
Na Tua fumaça de glória eu entrarei
                     Gm7                   Csus  C
 Longe do Santo dos Santos não sei mais viver

         Bb9                C/Bb
Quem já pisou no santo dos santos
            Am             Dm7
Em outro lugar não sabe viver
            Bb9             C
E onde estiver clama pela glória
             Fsus  F
A glória de Deus

  Bb9  C     Am  Dm   Bb9    C    Am  Dm
Gló___ória, glóóória, gló___ória, glóóória
 Bb9  C      Am  Dm Bb9  C     Am   Dm
Sa____anto, saaanto, sa____anto, saaanto
 Bb9 C      Am  Dm   Bb9 C      Am   Dm
Ka___adosh, kaaadosh, ka___adosh, kaaaadosh
 Bb9 C    Am   Dm7 Bb9 C    Am   Dm
Ho___oly, hooooly, Ho___oly, hooooly

         Bb9                C/Bb
Quem já pisou no santo dos santos
            Am             Dm
Em outro lugar não sabe viver
            Bb9             C
E onde estiver clama pela glória
             Fsus   F
A glória de Deus

  Bb9  C/Bb Am6  Dm   Bb9   C/Bb   Am6  Dm
Gló___ória, glóóória, gló___ória, glóóória
  Bb9  C/Bb Am6  Dm   Bb9   C/Bb   Am6  Dm
Gló___ória, glóóória, gló___ória, glóóória

0 comentários

mostrar mais comentários

Conseguiu tocar?

79 tocaram 24 ainda não

Grave um vídeo tocando O Que Sua Glória Fez Comigo e mande pra gente!

00:00 / 00:00
outros vídeos desta música
repetir qualidade Automático
Outros vídeos desta música
00:00 / 00:00
Automático
OK