Cifra Club

Aprenda

O Que Sua Glória Fez Comigo

Fernanda Brum

Cifra: Principal (violão e guitarra)
Já pensou em usar uma coleção de roupas do Cifra Club? Responda as perguntas abaixo e nos ajude nessa missão! →
tom: Dm
[Intro] Bb9  C/Bb  Am7  Dm 
        Bb9  C/Bb  Am7  Dm 

[Solo]

Parte 1 de 4

   Bb9      C/Bb
E|---------------------------------------------|
B|-6-5------5----------------------------------|
G|-----7-5----7-5------------------------------|
D|---------------------------------------------|
A|---------------------------------------------|
E|---------------------------------------------|

Parte 2 de 4

   Am7      Dm
E|---------------------------------------------|
B|-6-5------3----5----6------------------------|
G|-----5---------------------------------------|
D|-------7--3----5----7------------------------|
A|---------------------------------------------|
E|---------------------------------------------|

Parte 3 de 4

   Bb9      C/Bb
E|---------------------------------------------|
B|-6-5------5----------------------------------|
G|-----7-5----7-5------------------------------|
D|---------------------------------------------|
A|---------------------------------------------|
E|---------------------------------------------|

Parte 4 de 4

   Am7      Dm
E|---------------------------------------------|
B|-6-5------3----------------------------------|
G|-----5---------------------------------------|
D|-------7--3----------------------------------|
A|---------------------------------------------|
E|---------------------------------------------|

[Primeira Parte]

Bb9             Gm7
    Eu me rasgo     por inteiro
Am7                 Dm
    Faço tudo, mas vem novamente    
Bb9                 Gm7
    Eu mergulho na mirra ardente
Am7                      Dm
    Mas peço que Tua presença aumente

[Solo] Bb9  Gm7  Dm  Am7 
       Bb9  Gm7  Dm  Am7 

Parte 1 de 2

E|---------------------------------------------|
B|-13\10~-8------10~-8-------------------------|
G|----------10~--------10-9-10~----5-7---------|
D|-------------------------------7-------------|
A|---------------------------------------------|
E|---------------------------------------------|

Parte 2 de 2

E|---------------------------------------------|
B|---5-6/10~-8------10~-8----------------------|
G|-7-----------10~--------10-9~-10~----5h7-5~--|
D|-----------------------------------7---------|
A|---------------------------------------------|
E|---------------------------------------------|

[Primeira Parte]

Bb9             Gm7
    Eu me rasgo     por inteiro
Am7                 Dm
    Faço tudo, mas vem novamente    
Bb9                 Gm7
    Eu mergulho na mirra ardente
Am7                      Dm
    Mas peço que Tua presença aumente

[Segunda Parte]

Bb9                      Gm7          C
    E se eu passar pelo fogo não temerei                                            
                   Am7
Na Tua fumaça de glória eu entrarei
Bb9                     Gm7
    Longe do Santo dos Santos
                C4  C
Não sei mais viver

[Refrão]

         Bb9                C/Bb
Quem já pisou no santo dos santos
            Am7            Dm
Em outro lugar não sabe viver
            Bb9             C
E onde estiver clama pela glória
             F4  F  F4  F
A glória de Deus

         Bb9                C/Bb
Quem já pisou no santo dos santos
            Am7            Dm
Em outro lugar não sabe viver
            Bb9             C
E onde estiver clama pela glória
             F4  F 
A glória de Deus

[Ponte]

  Bb9     C/Bb      Am7      Dm
Gló-ó-ó-ó-ó-ória, Gló-ó-ó-ória
  Bb9     C/Bb      Am7      Dm
Gló-ó-ó-ó-ó-ória, Gló-ó-ó-ória
 Bb9     C/Bb     Am7      Dm
Sa-a-a-a-a-anto, Sa-a-a-anto
 Bb9     C/Bb     Am7      Dm
Sa-a-a-a-a-anto, Sa-a-a-anto

 Bb9     C/Bb      Am7     Dm
Ka-a-a-a-a-adosh, Ka-a-a-adosh
 Bb9     C/Bb      Am7     Dm
Ka-a-a-a-a-adosh, Ka-a-a-adosh
 Bb9     C/Bb    Am7     Dm
Ho-o-o-o-o-oly, Ho-o-o-oly
 Bb9     C/Bb    Am7     Dm
Ho-o-o-o-o-oly, Ho-o-o-oly

[Refrão]

         Bb9                C/Bb
Quem já pisou no santo dos santos
            Am7            Dm
Em outro lugar não sabe viver
            Bb9             C
E onde estiver clama pela glória
             F4  F  F4  F
A glória de Deus

         Bb9                C/Bb
Quem já pisou no santo dos santos
            Am7            Dm
Em outro lugar não sabe viver
            Bb9             C
E onde estiver clama pela glória
             F4  F 
A glória de Deus

[Final]

  Bb9     C/Bb      Am7      Dm
Gló-ó-ó-ó-ó-ória, Gló-ó-ó-ória
  Bb9     C/Bb      Am7      Dm
Gló-ó-ó-ó-ó-ória, Gló-ó-ó-ória
Composição de J. Edward Moon (Duda Moon)
1.447.680 exibições
  • Simplificar cifra
    • ½ Tom
    • Am
    • Bbm
    • Bm
    • Cm
    • C#m
    • Dm
    • Ebm
    • Em
    • Fm
    • F#m
    • Gm
    • G#m
  • Adicionar à lista

    0 comentários

    Ver todos os comentários

    Conseguiu tocar?

    124 Tocaram 68 Ainda não

    Grave um vídeo tocando O Que Sua Glória Fez Comigo e nos envie!

    00:00 / 00:00
    Outros vídeos desta música
    Repetir Qualidade Automático
    Outros vídeos desta música
    00:00 / 00:00
    Automático

    Cifra Club Pro

    Aproveite o Cifra Club com benefícios exclusivos e sem anúncios
    Cifra Club Pro
    Aproveite o Cifra Club com benefícios exclusivos e sem anúncios
    OK