Cifra Club

Aprenda

Aos Pés da Cruz

Oficina G3

Cifra: Principal (violão e guitarra)
tom: D
[Intro]

E|-----------------12--12--12--12--12---------------|
B|--10-10-10-10-10---10--10--10--10--10-------------|
G|-9--9--9--9--9------------------------------------|
D|--------------------------------------------------| (3x)
A|--------------------------------------------------|
E|--------------------------------------------------|

( A9  A  F#m7  F#m  Em  D9 )
( A9  A  F#m7  F#m  Em  D9 )

E|-------------------------12-12-12-12-12-12-12-12--|
B|-10-10-10-10-10-10-10-10--------------------------|
G|--------------------------------------------------|
D|--------------------------------------------------|
A|--------------------------------------------------|
E|--------------------------------------------------|

E|--------------------------------------------------|
B|-9-9-9-9-9-9-9-9-10-10-10-10-10-10-10-10----------|
G|--------------------------------------------------|
D|--------------------------------------------------|
A|--------------------------------------------------|
E|--------------------------------------------------|

E|--------------------------------------------------|
B|--------------------------------------------------|
G|-12-12-12-12-11-11-11-11-9-9-9-9-9-9-9-9----------|
D|--------------------------------------------------|
A|--------------------------------------------------|
E|--------------------------------------------------|

E|--------------------------------------------------|
B|--------------------------------------------------|
G|--------------------------------------------------|
D|--------------------------------------------------|
A|-5-4-0-5-0-5/7--5-4-0-2-0-2/4---------------------|
E|--------------------------------------------------|

E|-------------------------12-12-12-12-12-12-12-12--|
B|-10-10-10-10-10-10-10-10--------------------------|
G|--------------------------------------------------|
D|--------------------------------------------------|
A|--------------------------------------------------|
E|--------------------------------------------------|

E|--------------------------------------------------|
B|-9-9-9-9-9-9-9-9-10-10-10-10-10-10-10-10----------|
G|--------------------------------------------------|
D|--------------------------------------------------|
A|--------------------------------------------------|
E|--------------------------------------------------|

E|--------------------------------------------------|
B|--------------------------------------------------|
G|-12-12-12-12-11-11-11-11-9-9-9-9-9-9-9-9----------|
D|--------------------------------------------------|
A|--------------------------------------------------|
E|--------------------------------------------------|

E|--------------------------------------------------|
B|--------------------------------------------------|
G|--------------------------------------------------|
D|--------------------------------------------------|
A|-5-4-0-5-0-5/7--5-4-0-2-0-2/4---------------------|
E|--------------------------------------------------|

 A9                   A
Meu Jesus maravilhoso és
 F#m                    F#m7
Minha inspiração a prosseguir
   Em
E mesmo quando tudo não vai bem
D9
Eu continuo olhando para Ti

 A9                                A
Pois sei que Tu tens o melhor pra mim
   F#m
Há um segredo no Teu coração
     Em
Oh! Dá-me forças pra continuar
     D9
Guardando a promessa em oração

 A9                             C#m
Firme  oh! Deus está o meu coração
                           G
Firme nas promessas do Senhor
                          D9
Eu continuo olhando para Ti
                                 
E assim eu sei que posso prosseguir

A                     Em
E mesmo quando eu chorar
                       A Bm7
As minhas lágrimas serão
      A9   Bm            G
Para regar a minha fé
                Bm  A9
E consolar meu coração
                              Em
Pois o que chora aos pés da cruz
                     A   Bm7
Clamando em nome de Jesus
           A9       G
Alcançará de Ti Senhor
                Bm       A9
Misericórdia  graça e luz

( A  F#m7  F#m  Em  D9 )

E|-------------------------12-12-12-12-12-12-12-12--|
B|-10-10-10-10-10-10-10-10--------------------------|
G|--------------------------------------------------|
D|--------------------------------------------------|
A|--------------------------------------------------|
E|--------------------------------------------------|

E|--------------------------------------------------|
B|-9-9-9-9-9-9-9-9-10-10-10-10-10-10-10-10----------|
G|--------------------------------------------------|
D|--------------------------------------------------|
A|--------------------------------------------------|
E|--------------------------------------------------|

E|--------------------------------------------------|
B|--------------------------------------------------|
G|-12-12-12-12-11-11-11-11-9-9-9-9-9-9-9-9----------|
D|--------------------------------------------------|
A|--------------------------------------------------|
E|--------------------------------------------------|

E|--------------------------------------------------|
B|--------------------------------------------------|
G|--------------------------------------------------|
D|--------------------------------------------------|
A|-5-4-0-5-0-5/7--5-4-0-2-0-2/4---------------------|
E|--------------------------------------------------|

      A9
Teu grande amor não cessa
  F#m7
Eterno não tem fim
       Em
Quão grande és Tu Senhor
       D9
Quão grande és pra mim
      A9
Tua graça é o meu refúgio
    F#m
Descanso no Teu poder
 Em
Maravilhoso
D9
  Maravilhoso és pra mim

 A9                              C#m
Firme  oh! Deus está o meu coração
                           G
Firme nas promessas do Senhor
                          D9
Eu continuo olhando para Ti
                                
E assim eu sei que posso prosseguir

A                      Em
E mesmo quando eu chorar
                    A    Bm7
As minhas lágrimas serão
              A9    G
Para regar a minha fé
                Bm  A9
E consolar meu coração
                              Em
Pois o que chora aos pés da cruz
                     A    Bm7
Clamando em nome de Jesus
           A9       G
Alcançará de Ti Senhor
                     Bm  A9
Misericórdia graça e luz

[Solo] A9  Em  F#m  G  D5
       A9  Em  F#m  G  D5  
       A9  Em  F#m  G  D5  

 A9                             C#m
Firme  oh! Deus está o meu coração
                              G
Firme nas promessas do Senhor
                          
Eu continuo olhando para Ti
                              D  
E assim eu sei que posso prosseguir

A                     Em
E mesmo quando eu chorar
                    A    Bm7
As minhas lágrimas serão
        A9  Bm      D
Para regar a minha fé
        G        Bm  A9
E consolar meu coração

                              Em7
Pois o que chora aos pés da cruz
                     A    Bm7
Clamando em nome de Jesus
           A9  Bm      G
Alcançará de Ti Senhor
                  Bm  A9
Misericórdia  Graça e luz

( A9  A  F#m7  F#m  Em  D9 )
( A9  A  F#m7  F#m  Em  D9 )

E|-------------------------12-12-12-12-12-12-12-12--|
B|-10-10-10-10-10-10-10-10--------------------------|
G|--------------------------------------------------|
D|--------------------------------------------------|
A|--------------------------------------------------|
E|--------------------------------------------------|

E|--------------------------------------------------|
B|-9-9-9-9-9-9-9-9-10-10-10-10-10-10-10-10----------|
G|--------------------------------------------------|
D|--------------------------------------------------|
A|--------------------------------------------------|
E|--------------------------------------------------|

E|--------------------------------------------------|
B|--------------------------------------------------|
G|-12-12-12-12-11-11-11-11-9-9-9-9-9-9-9-9----------|
D|--------------------------------------------------|
A|--------------------------------------------------|
E|--------------------------------------------------|

E|--------------------------------------------------|
B|--------------------------------------------------|
G|--------------------------------------------------|
D|--------------------------------------------------|
A|-5-4-0-5-0-5/7--5-4-0-2-0-2/4---------------------|
E|--------------------------------------------------|
Composição de Kleber Lucas
489.439 exibições
    • ½ Tom
    • A
    • Bb
    • B
    • C
    • Db
    • D
    • Eb
    • E
    • F
    • F#
    • G
    • Ab
  • Adicionar à lista

    0 comentários

    Ver todos os comentários
    00:00 / 00:00
    Outros vídeos desta música
    Repetir Qualidade Automático
    Outros vídeos desta música
    00:00 / 00:00
    Automático

    Cifra Club Pro

    Aproveite o Cifra Club com benefícios exclusivos e sem anúncios
    Cifra Club Pro
    Aproveite o Cifra Club com benefícios exclusivos e sem anúncios
    OK