Notificações Amigos pendentes

      Oficina G3

      Aos Pés da Cruz

      287.646 exibições
      Tom: D
      Intro (2x): A9  A  F#m7  F#m  Em  D9
      
      Primeira parte:
      
      
      E|-----------------12--12--12--12--12---|
      B|--10-10-10-10-10---10--10--10--10--10-|
      G|-9--9--9--9--9------------------------|  (4x)
      D|--------------------------------------|
      A|--------------------------------------|
      E|--------------------------------------|
      
      
      Segunda parte: (É feita a segunda parte mais o Riff I 2x)
      
      
      E|-------------------------12-12-12-12-12-12-12-12------------------------|
      B|-10-10-10-10-10-10-10-10------------------------------------------------|   
      G|------------------------------------------------------------------------|     
      D|------------------------------------------------------------------------| 
      A|------------------------------------------------------------------------| 
      E|------------------------------------------------------------------------|
      
      
      E|------------------------------------------------------------------------|
      B|-9-9-9-9-9-9-9-9-10-10-10-10-10-10-10-10--------------------------------|
      G|-----------------------------------------12-12-12-12-11-11-11-11-9-9-9-9|
      D|------------------------------------------------------------------------|
      A|------------------------------------------------------------------------|
      E|------------------------------------------------------------------------|
      
      
      Riff I
      
      
      E|-------------------------------|
      B|-------------------------------|
      G|-------------------------------|
      D|-------------------------------|
      A|-0-5-4-5-4-5-4-7--5-4-0-2-2p4--|
      E|-------------------------------|
      
      
      
      
      Riff II (Entra apenas no último verso da segunda estrofe!)
      
      
      E|-------------------------------|
      B|-------------------------------|
      G|-------------------------------|
      D|-------------------------------|
      A|-0-5-4-5-4-5-4-0--4-5-2--------|
      E|-------------------------------|
      
      
      
      
      A9                   A
      Meu Jesus maravilhoso és
      F#m                    F#m7
      Minha inspiração a prosseguir
              G
      E mesmo quando tudo não vai bem
      D9
      Eu continuo olhando para Ti.
      
      
      
      OBS: Aqui a guitarra entra tocando as notas nos bordões e abafando
      e o Riff II no final da estrofe.
      
      
      A9                               A
      Pois sei que Tu tens o melhor pra mim
                            F#m
      Há um segredo no Teu coração
            Em
      Oh! Dá-me forças pra continuar               
                                      *(Riff II)*
      Guardando a promessa em oração.
      
      A9                             A9/C#
      Firme  oh! Deus está o meu coração
                                 G
      Firme nas promessas do Senhor
                                D9
      Eu continuo olhando para Ti
                                       A9
      E assim eu sei que posso prosseguir
      
                            Em
      E mesmo quando eu chorar
                         A   Bm7
      As minhas lágrimas serão
             A9           G
      Para regar a minha fé
                     Bm   A9
      E consolar meu coração
                                   Em
      Pois o que chora aos pés da cruz
                            A  Bm7
      Clamando em nome de Jesus
                  A9     G
      Alcançará de Ti Senhor
                             A9
      Misericórdia  Graça e luz
      
      (Intro)
      
      A9
      Teu grande amor não cessa
                      F#m7
      Eterno não tem fim
                Em
      Quão grande és Tu Senhor
        G
      Quão grande és pra mim
      A9
      Tua graça é o meu refúgio
      F#m
      Descanso no Teu poder
      Em
      Maravilhoso és
      G                   G9
      Maravilhoso és pra mim
      
      A9                              A9/C#
      Firme  oh! Deus está o meu coração
                                 G
      Firme nas promessas do Senhor
                                D9
      Eu continuo olhando para Ti
                                       A9
      E assim eu sei que posso prosseguir
      
                            Em
      E mesmo quando eu chorar
                           A   Bm7
      As minhas lágrimas serão
                   A9     G
      Para regar a minha fé
                     B    A9
      E consolar meu coração
                                   Em
      Pois o que chora aos pés da cruz
                            A  Bm7
      Clamando em nome de Jesus
                  A9     G
      Alcançará de Ti Senhor
                             A9
      Misericórdia  Graça e luz
      
      Base Solo (3x):
      
      (obs:se não fazer o da tablatura,faz as notas com pestana.)
                                              D9
      
           A9        E9       F#m            G  (C# D9 E9)
      E|-----------------------------------------------|
      B|-----------------------------------------------|
      G|----------9999999---------------------66-77-99-|  (3x)
      D|-7777777--9999999--5-4-------4-5--555-66-77-99-|
      A|-7777777--7777777-------7-5-7-----555-44-55-77-|
      E|-5555555--------------------------333----------|
      
      
      A9                              A9/C#
      Firme  oh! Deus está o meu coração
                                 Em
      Firme nas promessas do Senhor
                                G
      Eu continuo olhando para Ti
                                     D     A9
      E assim eu sei que posso prosseguir
                            Em
      E mesmo quando eu chorar
                           A   Bm7
      As minhas lágrimas serão
                   A9     G
      Para regar a minha fé
                     B    A9
      E consolar meu coração
      
                                   Em7
      Pois o que chora aos pés da cruz
                            A  Bm7
      Clamando em nome de Jesus
                  A9     G
      Alcançará de Ti Senhor
                             D A9
      Misericórdia  Graça e luz
      
      Fim (1x):
      
      (Intro)
        Composição: Kleber LucasColaboração e revisão:
        • João
        • d..g
        • juninho.ferreira.5667
        • filipe619
        • +11

        Comentários 45

        140 .
        • levialvesu2 levialvesu2: Em 14/11/2015 15:35

          muito boa essa

        • Anthoony Anthoony: Em 14/09/2015 21:36

          Esssa tablatura tbm ta errado , ele entra con o solo na 15 casa

        • Itheone Itheone: Em 26/02/2015 13:30

          faz a aula de guitarra completa

          • Alefe Alefe: Em 19/07/2015 06:55

            Seria uma boa

        • Fenanda Fenanda: Em 14/10/2014 18:42

          essa cifra está errada o Mauro tocar com o capotraste na 5 ou 4 casa.

        • raul raul: Em 07/06/2014 14:04

          a cifra e a tablatura estão certas e só você tocar ouvindo a musica pra acertar os pequenos detalhes do solo.

        • anndryw.alberto anndryw.alberto: Em 17/05/2014 12:35

          a tlabatura do solo ta errada

        • gabriel.limaluz.77 gabriel.limaluz.77: Em 01/05/2014 15:44

          mo chato o cifra club paro de fazer aulas boas

        • mateus.marinho.902 mateus.marinho.902: Em 30/04/2014 14:44

          video aula pfv!!

        140 cancelar

        conseguiu tocar?

        • •••

        covers

        Grave um vídeo tocando Aos Pés da Cruz e mande pra gente!

        Ex.: http://www.youtube.com/watch?v=0IvSvIwGdwk
        ver covers de outras músicas »
        0:00 / 0:00

        Capítulos

          2 versões de baixo exibições contribuição e correção
          2 versões de Guitar Proformatodownloadscontribuição
          play/pausefechar subir/descer velocidade
          6ª corda E5ª corda A4ª corda D3ª corda G2ª corda B1ª corda E
            acordes
            publicidade
            fechar
            ok