Cifra Club

Aprenda

Meus Próprios Meios

Oficina G3

Cifra: Principal (violão e guitarra)
tom: A
[Intro] Cm  G#  Fm  Bb  Cm

[Riff Parte 1]

E|----------------------------------------------|
B|----------------------------------------------|
G|-5-5-5-5-5-5-5-5-5--11-10-8-5-----------------|
D|-5-5-5-5-5-5-5-5-5--11-10-8-5-----------------|
A|-3-3-3-3-3-3-3-3-3--9--8--6-3-----------------|
E|----------------------------------------------|

[Riff Parte 2]

E|----------------------------------------------|
B|----------------------------------------------|
G|-5-5-5-5-5-5-5-5-5-5-5-5-5--------------------|
D|-5-5-5-5-5-5-5-5-5-5-5-5-5--------------------|
A|-3-3-3-3-3-3-3-3-3-6-3-6-3--------------------|
E|----------------------------------------------|

  Cm     G#   Fm                Cm
Quantas vezes os meus próprios meios
    G#     Fm
Me levaram a lugar nenhum
 Cm   G#    Fm            Cm
Cada passo dado era um erro
         G#        Fm
Que me afastava do objetivo

 Cm
Buscar as coisas certas da maneira errada
G#             Fm    
E o mesmo que nadar contra a maré
 Cm
Lutando pelas nossas próprias forcas
 G#               Bb
Já entramos na batalha derrotados

 G#
Mas e tempo de abrir os olhos
          Bb             Fm    Bb  G#
Pois não temos pra onde correr
                      Bb
E entender que sem o pai não somos nada
G#                    Bb
E o primeiro passo rumo a vitoria

[Refrão]

Cm            G#       Bb
Eu ando pela força do Senhor
Cm             G#    Bb
Eu vivo pelas Suas promessas
Cm          G#      Bb
A cada dia mato um leão
Cm          G#       Bb
A unção de Deus esta em mim

Cm            G#       Bb
Eu ando pela força do Senhor
Cm             G#    Bb
Eu vivo pelas Suas promessas
Cm          G#      Bb
A cada dia mato um leão
Cm          G#       Bb
A unção de Deus esta em mim

[Riff Parte 1]

E|----------------------------------------------|
B|----------------------------------------------|
G|-5-5-5-5-5-5-5-5-5--11-10-8-5-----------------|
D|-5-5-5-5-5-5-5-5-5--11-10-8-5-----------------|
A|-3-3-3-3-3-3-3-3-3--9--8--6-3-----------------|
E|----------------------------------------------|

[Riff Parte 2]

E|----------------------------------------------|
B|----------------------------------------------|
G|-5-5-5-5-5-5-5-5-5-5-5-5-5--------------------|
D|-5-5-5-5-5-5-5-5-5-5-5-5-5--------------------|
A|-3-3-3-3-3-3-3-3-3-6-3-6-3--------------------|
E|----------------------------------------------|

  Cm     G#   Fm                Cm
Quantas vezes os meus próprios meios
    G#     Fm
Me levaram a lugar nenhum

 Cm
Buscar as coisas certas da maneira errada
G#             Fm    
E o mesmo que nadar contra a maré
 Cm
Lutando pelas nossas próprias forcas
 G#               Bb
Já entramos na batalha derrotados

 G#
Mas e tempo de abrir os olhos
          Bb             Fm    Bb  G#
Pois não temos pra onde correr
                      Bb
E entender que sem o pai não somos nada
G#                    Bb
E o primeiro passo rumo a vitoria

[Refrão]

Cm            G#       Bb
Eu ando pela força do Senhor
Cm             G#    Bb
Eu vivo pelas Suas promessas
Cm          G#      Bb
A cada dia mato um leão
Cm          G#       Bb
A unção de Deus esta em mim

Cm            G#       Bb
Eu ando pela força do Senhor
Cm             G#    Bb
Eu vivo pelas Suas promessas
Cm          G#      Bb
A cada dia mato um leão
Cm          G#       Bb
A unção de Deus esta em mim

[Solo] Cm

[Riff Parte 1]

E|----------------------------------------------|
B|----------------------------------------------|
G|-5-5-5-5-5-5-5-5-5--11-10-8-5-----------------|
D|-5-5-5-5-5-5-5-5-5--11-10-8-5-----------------|
A|-3-3-3-3-3-3-3-3-3--9--8--6-3-----------------|
E|----------------------------------------------|

[Riff Parte 2]

E|----------------------------------------------|
B|----------------------------------------------|
G|-5-5-5-5-5-5-5-5-5-5-5-5-5--------------------|
D|-5-5-5-5-5-5-5-5-5-5-5-5-5--------------------|
A|-3-3-3-3-3-3-3-3-3-6-3-6-3--------------------|
E|----------------------------------------------|

[Refrão]

Cm            G#       Bb
Eu ando pela força do Senhor
Cm             G#    Bb
Eu vivo pelas Suas promessas
Cm          G#      Bb
A cada dia mato um leão
Cm          G#       Bb
A unção de Deus esta em mim

[Final] Cm
Composição de Déio Tambasco
289.440 exibições
    • ½ Tom
    • A
    • Bb
    • B
    • C
    • Db
    • D
    • Eb
    • E
    • F
    • F#
    • G
    • Ab
  • Adicionar à lista

    0 comentários

    Ver todos os comentários
    00:00 / 00:00
    Outros vídeos desta música
    Repetir Qualidade Automático
    Outros vídeos desta música
    00:00 / 00:00
    Automático

    Cifra Club Pro

    Aproveite o Cifra Club com benefícios exclusivos e sem anúncios
    Cifra Club Pro
    Aproveite o Cifra Club com benefícios exclusivos e sem anúncios
    OK