Oficina G3

Depois da Guerra

266.359 exibições
Tom: B

   Intro 4x: G#m  E  C#m  E  Eb
E|------------------------------------------------------------------------|
B|---/16~---14---/19--16~------/14-14--12--14/16--14--12-11-12-14-11\9-9--|
G|------------------------------------------------------------------------|
D|------------------------------------------------------------------------|
A|------------------------------------------------------------------------|
E|------------------------------------------------------------------------|



E|-------------14-16------------------------------------------------------|
B|---/16--14-----------16-----/14--14--12--14/16--14--12-11-12-14-11/9-9--|
G|------------------------------------------------------------------------|
D|------------------------------------------------------------------------|
A|------------------------------------------------------------------------|
E|------------------------------------------------------------------------|
           (19x)           (19x)             (7x)              (7x)


E|--------------|----5----------|----------------|-----------------|
B|----7---------|----7----------|----3-----------|----2------------|
G|----9---------|----7----------|----5-----------|----4------------|
D|----9---------|---------------|----5-----------|----4------------|
A|--------------|---------------|----------------|-----------------|
E|--------------|---------------|----------------|-----------------|


( G#m  Bbm  B  F#)

G#m
Vejo ruínas de uma guerra
			E  Bb
Mais uma guerra por nossas mãos
G#m
As armas foram às palavras
		Bb
A vaidade a motivação

G#m	       	       Fm
Feridas que sangraram a alma
G#m          		Bb  F#  G#m
A fé de muitos se perdeu
G#m
Um dia irmãos hoje inimigos
		            Bb  E  Cm  G#  Fm
Matou-se o amor que nos fez um

Cm	  G#      Fm
Quem vencera uma guerra entre irmãos
     G#       Bb
Uma guerra perdida
Cm	  G#    Fm
Quem perdera um povo escolhido
    G#   Bb
Um povo ferido

G#m
Quebradas foram as alianças
			E Bb
Palavras que trouxeram divisão
G#m
Pregadas, cantadas faladas
		       Bb
Por muitos que diziam ser irmãos

E		       C#m
Feridas que sangraram a alma
E          	        Bb  F#  G#m
A fé de muitos se perdeu
G#m
Na cruz o exemplo nos foi dado
G#m		              E
Onde ficou o amor que nos fez um

Cm	  G#      Fm
Quem vencera uma guerra entre irmãos
     G#       Bb
Uma guerra perdida
Cm	  G#    Fm
Quem perdera um povo escolhido
    G#   Bb
Um povo ferido

Solo: Cm  G#  Fm  G#  Bb  Cm  G#  F  G#  Bb
      (Bbm  F#  Ebm  F#  G#) (2x)

Final: Cm  G#  Fm  G#  Bb
    Sabe quem é o compositor? Envie pra gente.Colaboração e revisão:
    • Washington
    • erickdety
    • Jaze
    • dagoberto
    • +13

    Comentários 28

    • hackerbi hackerbi: Postado em 02/06/2014 20:43

      Video aula please, pfv

    • gabriel.limaluz.77 gabriel.limaluz.77: Postado em 04/05/2014 11:08

      ou quero video aula ae em ????

    • silvio.g.forneasjunior silvio.g.forneasjunior: Postado em 19/01/2014 21:26

      concordo veio

    • gianynny gianynny: Postado em 07/12/2013 15:28

      Pessoal, os acordes estão incorretos; está muito errada essa cifra.

    • Natan Natan: Postado em 18/11/2013 17:37

      as notas estao todas certas eo solo tambem

    • denny.batera.1 denny.batera.1: Postado em 08/11/2013 11:40

      As notas todas erradas aff'

    • Rapha Rapha: Postado em 23/09/2013 15:10

      G4,Fm, G#, F4,A4,Bb4,Em,G,D

    • nwelektra nwelektra: Postado em 21/11/2012 20:05

      Alguem ai arrica Better

    • isaguitar12 isaguitar12: Postado em 22/08/2012 13:42

      Gente o tom do acustico é D# por que ele começa em G#m a introdução, procurem no youtube assim:Oficina G3 - Depois da Guerra (acústico)

      • nwelektra nwelektra: Postado em 21/11/2012 20:05

        isso ae e o tom de D# enquadra o Cm como o amigo diz ai embaixo.

      • Victor Victor: Postado em 14/07/2013 03:29

        Num e em D# nunca . O Juninho faz Ele em Cm Treina o ouvido em Cm e ouvi pra ti ver

      • Joao Pedro Joao Pedro: Postado em 14/11/2013 13:26

        é mesmo

    Exibindo 13 de 28 comentários Mostrar mais ver todos »

    conseguiu tocar?

    • Gabriel
    • Mateus
    • rock.reggae.punk.s2
    • Jessica Rossana
    • mateuscrispim
    • rafael.dossantosvicente.9
    • Leandro
    • •••
    Haron Cardoso Távora Milhomem3.193 visualizações
      ver covers de outras músicas »
      0:00 / 0:00

      Capítulos

        1 versão de baixoexibiçõescontribuição e correção
        play/pausefechar subir/descer velocidade
        6ª corda E5ª corda A4ª corda D3ª corda G2ª corda B1ª corda E
          acordes
          publicidad
          fechar
          ok