Depois da Guerra

Oficina G3

 Oficina G3 Compositor: Dago
Tom: B
		

 Intro 4x: G#m  E  C#m  E  Eb
E|------------------------------------------------------------------------|
B|---/14~---12---/17--14~------/14-14--12--14/16--14--12-11-11-12-11\9-9--|
G|------------------------------------------------------------------------|
D|------------------------------------------------------------------------|
A|------------------------------------------------------------------------|
E|------------------------------------------------------------------------|



E|-------------------------------------------------------------------------------|
B|---/14--12----14/17--17/19---14~-----/14--14--12--14/16--14--12-11-11-12-11/9-9|
G|-------------------------------------------------------------------------------|
D|-------------------------------------------------------------------------------|
A|-------------------------------------------------------------------------------|
E|-------------------------------------------------------------------------------|
           (19x)           (19x)             (7x)              (7x)


E|--------------|----5----------|----------------|-----------------|
B|----7---------|----7----------|----3-----------|----2------------|
G|----9---------|----7----------|----5-----------|----4------------|
D|----9---------|---------------|----5-----------|----4------------|
A|--------------|---------------|----------------|-----------------|
E|--------------|---------------|----------------|-----------------|


( G#m  Bbm  B  F#)

G#m
Vejo ruínas de uma guerra
			E  Bb
Mais uma guerra por nossas mãos
G#m
As armas foram às palavras
		Bb
A vaidade a motivação

G#m	       	       Bb
Feridas que sangraram a alma
G#m          		Bb  F#  G#m
A fé de muitos se perdeu
G#m
Um dia irmãos hoje inimigos
		            Bb  E  Cm  G#  Fm
Matou-se o amor que nos fez um

Cm	  G#      Fm
Quem vencera uma guerra entre irmãos
     G#       Bb
Uma guerra perdida
Cm	  G#    Fm
Quem perdera um povo escolhido
    G#   Bb
Um povo ferido

G#m
Quebradas foram as alianças
			E Bb
Palavras que trouxeram divisão
G#m
Pregadas, cantadas faladas
		       Bb
Por muitos que diziam ser irmãos

E		       C#m
Feridas que sangraram a alma
E          	        Bb  F#  G#m
A fé de muitos se perdeu
G#m
Na cruz o exemplo nos foi dado
G#m		              E
Onde ficou o amor que nos fez um

Cm	  G#      Fm
Quem vencera uma guerra entre irmãos
     G#       Bb
Uma guerra perdida
Cm	  G#    Fm
Quem perdera um povo escolhido
    G#   Bb
Um povo ferido

Solo: Cm  G#  Fm  G#  Bb  Cm  G#  F  G#  Bb
      (Bbm  F#  Ebm  F#  G#) (2x)     

Final: Cm  G#  Fm  G#  Bb
Texto Colunas
Alterar tom ½ tom ½ tom
afinação acordes na letra esconder tabs mais »

Comentários (26)

  • silvio.g.forneasjunior silvio.g.forneasjunior: Postado em 19/01/2014 21:26

    concordo veio

  • gianynny gianynny: Postado em 07/12/2013 15:28

    Pessoal, os acordes estão incorretos; está muito errada essa cifra.

  • Natan Natan: Postado em 18/11/2013 17:37

    as notas estao todas certas eo solo tambem

  • denny.batera.1 denny.batera.1: Postado em 08/11/2013 11:40

    As notas todas erradas aff'

  • Rapha Rapha: Postado em 23/09/2013 15:10

    G4,Fm, G#, F4,A4,Bb4,Em,G,D

  • nwelektra nwelektra: Postado em 21/11/2012 20:05

    Alguem ai arrica Better

  • isaguitar12 isaguitar12: Postado em 22/08/2012 13:42

    Gente o tom do acustico é D# por que ele começa em G#m a introdução, procurem no youtube assim:Oficina G3 - Depois da Guerra (acústico)

    • nwelektra nwelektra: Postado em 21/11/2012 20:05

      isso ae e o tom de D# enquadra o Cm como o amigo diz ai embaixo.

    • Victor Victor: Postado em 14/07/2013 03:29

      Num e em D# nunca . O Juninho faz Ele em Cm Treina o ouvido em Cm e ouvi pra ti ver

Exibindo 10 de 26 comentários Mostrar mais ver todos »
Composição: Sabe quem é o compositor? Envie pra gente. Contribuição: bg_music Correções: Washington , lipebass e mais 15 »
  1. Tudo Que Você Quiser - Luan Santana Manteve-se 6.122 exibições
  2. Lepo Lepo - Psirico Manteve-se 4.394 exibições
  3. Mozão - Lucas Lucco Manteve-se 4.201 exibições
  4. Logo Eu - Jorge e Mateus Manteve-se 4.020 exibições
  5. Pra Você - Onze:20 Manteve-se 4.019 exibições
  6. Gaveta - Fernando e Sorocaba Manteve-se 3.769 exibições
  7. Só Os Loucos Sabem - Charlie Brown Jr. Manteve-se 3.071 exibições
  8. Tempo Perdido - Legião Urbana Manteve-se 2.714 exibições
  9. Fui Fiel - Gusttavo Lima Manteve-se 2.713 exibições
  10. Domingo de Manha - Marcos e Belutti Manteve-se 2.289 exibições
  1. Jorge e Mateus- Manteve-se 23.884 exibições
  2. Legião Urbana- Manteve-se 21.696 exibições
  3. Luan Santana- Manteve-se 17.411 exibições
  4. Charlie Brown Jr.- Manteve-se 17.352 exibições
  5. Fernandinho- Manteve-se 14.841 exibições
  6. Católicas- Manteve-se 11.201 exibições
  7. Thalles Roberto- Manteve-se 11.085 exibições
  8. Gusttavo Lima- Manteve-se 11.009 exibições
  9. Victor e Leo- Manteve-se 10.721 exibições
  10. Bruno e Marrone- Manteve-se 10.310 exibições
Exibir acordes »

Cifras e tabs

Fórum Cifra Club

Aprenda

Cifra Club News

Mais Serviços Cifra Club ID

Studio Sol

©1996 - 2014 Cifra Club · o primeiro, maior e mais acessado do Brasil · 329 mil músicas · 6.0 milhões pessoas cadastradas

publicidade
fechar