Queria te Dizer

Oficina G3

 Oficina G3
Tom: C
		
Intro 4x: G9 Am7
Riff 1:

E|---------------------------------------|
B|--------------------------------0------|
G|----0----2--2--------0----2--2---2-----|
D|---0--0---0--0------0--0---0--0---0----|
A|--2-----2--2--2----2-----2--2--2---2---|
E|-3----------------3--------------------|


G          Am7    G
Eu queria tanto te dizer
  Am7
Das coisas que eu sinto
G          Am7              G
Não de um pensamento, mas de algo
                           C
Que eu trago dentro do meu coração
          C                     G      Am7
Que é tudo o que eu tenho, eu te ofereço
 G         Am7
Coração que quer te amar
 F
De um amor tão puro
 C9                                G
Que traga um sorriso pros teus lábios


 ( G C Bb F )
E|-10--10--8--8--8--6--5--6--8-|
B|---8---8---8--8--6--6--6--6--|
G|-----------------------------|
D|-----------------------------|
A|-----------------------------|
E|-----------------------------|


G          Am7              G
Quero que minhas mão limpas
             Am7
Toquem o teu rosto um dia
G          Am7         G
Quero ver a tua glória
       Am7
Refletindo na minha vida
   C9
E nesse dia, então
C9                        G      Am7
Esse meu canto vai te encontrar
  G               Am7
E vai tocar teu coração
 F               C9
Porque eu te amo

G          Am7    G
Eu queria tanto te dizer
  Am7
Das coisas que eu sinto
G          Am7              G
Não de um pensamento, mas de algo
                           C9
Que eu trago dentro do meu coração
          C                     G      Am7
Que é tudo o que eu tenho, eu te ofereço
 G         Am7
Coração que quer te amar
 F
De um amor tão puro
 C9                                G
Que traga um sorriso pros teus lábios


 ( G C Bb F )
E|-10--10--8--8--8--6--5--6--8-|
B|---8---8---8--8--6--6--6--6--|
G|-----------------------------|
D|-----------------------------|
A|-----------------------------|
E|-----------------------------|



Solo 4x: G Am7
E|-------------------------------------------------------------|
B|-----------7-8-8-8--8/10-10-10-8-10/12--8-10-12s-10-10-12-8~-|
G|--------7-9--------7-----------------------------------------|
D|-7-9-10------------------------------------------------------|
A|-------------------------------------------------------------|
E|-------------------------------------------------------------|



E|-----------------10/12-10--------------------8-7-------------|
B|-8-8-8---8/10-10----------13-12----8/10-8-10-----10-8-7------|
G|-------7------------------------------------------------9-7~~|
D|-------------------------------------------------------------|
A|-------------------------------------------------------------|
E|-------------------------------------------------------------|


   C9
E nesse dia, então
C9                        G      Am7
Esse meu canto vai te encontrar
  G               Am7
E vai tocar teu coração
 F               C9
Porque eu te amo

         G    Am7
Pai, eu te amo
F             C9
Porque eu te amo (2x)

C9                       G
Esse me canto vai te encontrar...

Comentários 3

  • eveli.costa.5 eveli.costa.5: Postado em 11/06/2013 02:28

    Não gostei, o Mauro canta muito, mas essa música fica melhor o Juninho cantando. Só acho

  • eveli.costa.5 eveli.costa.5: Postado em 11/06/2013 02:26

    Não gostei, o Mauro canta muito, mas essa música fica melhor o Juninho cantando. Só acho (y)

  • foliveira foliveira: Postado em 22/06/2011 20:33

    bem simples e muito bem elaborado ...muito bom

Exibir acordes »
publicidade
fechar