Cifra Club

Cinema de Faroeste

14 Bis

Cifra: Principal
exibições 2.403
Tom: C
Intro 4x:

       Am             Am7            Am6
E|--------5-5------------5-5------------5-5------|
B|----5---------5----5---------5----5---------5--|
G|------5-----5--------5-----5--------5-----5----|
D|--7--------------5--------------4--------------|
A|-----------------------------------------------|
E|-----------------------------------------------|

       F7M/A
E|--------5-5------------------------------------|
B|----5---------5--------------------------------|
G|------5-----5----------------------------------|
D|--3--------------------------------------------|
A|-----------------------------------------------|
E|-----------------------------------------------|

  Am                Am7
Passou pelo meio da noite
             Am6            F7M/A
Montando o cavalo encantado
  Am                 Am7
Saiu pela tela de um velho
          Am6
Cinema de faroeste

(E F# F#7 Bm G D Bb F Em A)
(Bb C Dm Am )(4x)

(Bm E )(4x)
(G D F)
(Am D )(2x)
(Am Bb E)

Am              Am7
Foi voando mais alto que o vento
  Am6         F7M/A
Sonhando amar
   Am                   Am7
No peito uma estrela pulsando
             Am6    E F# F#7
Num tempo de sangue

Bm      G            D
Vem galopar nos meus braços
Bb      F           Em        A
Meu coração quer dançar com você
    Em       A
Num velho saloon

(Música de Saloon) D G E A Bm G  G D A D

(Volta ao normal) Dm E 
                 (Am Am7 Am6 F7M/A )(2x)

  Am
O mundo é um filme
  Am7             Am6    F7M/A
Rodando em câmara lenta
     Am                Am7
Seus olhos me contam estórias
                 Am6     F7M/A
De um tempo mais louco
     Em     F
Onde eu não fui
    Em   F
Nem chegarei
    Em       A      Em   A
Não puxe o gatilho, meu amor

Bb     C   Dm
Rifles e duelos
Am    Bb  C    Dm  Am
Tiros ao amanhecer
   Bb   C     Dm
Na tela ou no mundo
Am       Bm    E
Queima o mesmo sol
    Bm    E
Não sei viver
   Bm    E
Só Sei sonhar
  Bm     E
Sonhar viver

Final: G D F 
      (Am D )(2x) 
      (Am Bb E)
      (Am Am7 Am6 Bb Eb G# Am F7M/A Am6 Em Am)
Acordes para:
    Composição: Flávio Venturini / Vermelho / Suzana NunesColaboração e revisão:
    • Icaro Carvalho

    0 comentários

      mostrar mais comentários

      Conseguiu tocar?

      1tocaram0ainda não

      Grave um vídeo tocando Cinema de Faroeste e mande pra gente!

      00:00 / 00:00
      outros vídeos desta música
      repetirqualidadeautomática
      Outro vídeos desta música
        00:00 / 00:00
        automática
        OK