Cifra Club

Paegan Love Song

Acid Bath

Cifra: Versão 2 (violão e guitarra)
Selo Cifra Club: esta cifra foi revisada para atender aos critérios oficiais da nossa Equipe de Qualidade.
tom: F
Intro

E|---------------------------------------------|
B|---------------------------------------------|
G|---------------------------------------------|
D|---------------------------------------------|
A|-----5-7-----------------5-7-----------------|
E|-5-7-----5-6-7-5-6-7--5-7----5-6-7-14~-------|

Riff 1 (10X)
Gtr 1
E|-------------------------|
B|-------------------------|
G|-------7-9-9-------------|
Bb|-7-9-9-7-9-9-7-8-9-7-8-9-|
F |-7-9-9-5-7-7-7-8-9-7-8-9-|
C|-5-7-7-------5-6-7-5-6-7-|

Gtr 2
E|-------------------------|
B|-------------------------|
G|-------7-9-9-------------|
Bb|-7-9-9-7-9-9-7-8-9-7-8-9-|
F |-7-9-9-5-7-7-7-8-9-7-8-9-|
C|-5-7-7-------5-6-7-5-6-7-|

E|-----|
B|-----|
G|-----|
D|-----|
A|-----|
C |-14~-|

Chorus Riff Both Gtrs (4X)
E|---------------------------------|
B|---------------------------------|
G|---------------------------------|
Bb|-7/10-9-9-9-9-9-9-9-9-9-10-10-10-|
F |-7/10-9-9-9-9-9-9-9-9-9-10-10-10-|
C|-5/8--7-7-7-7-7-7-7-7-7--8--8--8-|

Play Intro Riff
Play Riff 1 2X
Play Riff 1
Play Chorus Riff
Play Riff 1
Play Chorus Riff
Play Riff 1
Play Chorus Riff
Play Riff 1
Play Chorus Riff
Play Chorus Riff 4X

Play Intro Riff
Play Riff 1 2X

Riff 2 Both Gtrs
E|----------------------------------|
B|----------------------------------|
G|---------7----------------7---7/9-|
Bb|-7/9-9-9-7-9-9-9-7/-7-7-7-7-9-7/9-|
F |-7/9-9-9-5-9-9-9-7/-7-7-7-5-9-5/7-|
C|-5/7-7-7---7-7-7-5/-5-5-5---7-----|

Riff 3 Both Gtrs
E|--------------------------------|
B|--------------------------------|
G|---------7----------------7-----|
Bb|-7/9-9-9-7-9-9-9-7/-9-9-9-7-9-7-|
F |-7/9-9-9-5-9-9-9-7/-9-9-9-5-9-7-|
C|-5/7-7-7---7-7-7-5/-7-7-7---7-5-|

Play Riff 2
Play Riff 3

Riff 4 Both Gtrs
E|----------------------------------------------------------|
B|----------------------------------------------------------|
G|----------------------------------------------------------|
D|-7/9-9-9-9-9-9-9-9-9-9-9-7/9-9-9-9-9-9-9-9-9-9-9----------|
F |-7/9-9-9-9-9-9-9-9-9-9-9-7/9-9-9-9-9-9-9-9-9-9-9-12-12-12-|
C |-5/7-7-7-7-7-7-7-7-7-7-7-5/7-7-7-7-7-7-7-7-7-7-7-10-10-10-|

Play Riff 4 3X

Riff 5
E|--------------------------------------------------------|
B|--------------------------------------------------------|
G|--------------------------------------------------------|
Bb|-9-9-9-9-9-9-9-9-9-9-9-10-10-10-10-10-10-10-10-10-10-10-|
F |-9-9-9-9-9-9-9-9-9-9-9-10-10-10-10-10-10-10-10-10-10-10-|
C|-7-7-7-7-7-7-7-7-7-7-7-8--8--8--8--8--8--8--8--8--8--8--|

Play Riff 2
Play Riff 3
Play Riff 2
Play Riff 3
Play Riff 4

Play Over Riff 5, *Gradual Upward Bends
C|----------------------------------------------------|
G |*-15b(17)15b(17)15b(17)15b(17)15b(17)15b(17)15b(17)-| and so
Eb|----------------------------------------------------|   on...
Bb|----------------------------------------------------|
F |----------------------------------------------------|
C|----------------------------------------------------|

Under Solo:
E|----------------------------------|
B|----------------------------------|
G|---------7----------------7---7/9-|
Bb|-7/9-9-9-7-9-9-9-7/-7-7-7-7-9-7/9-|
F |-7/9-9-9-5-9-9-9-7/-7-7-7-5-9-5/7-|
C|-5/7-7-7---7-7-7-5/-5-5-5---7-----|
    . . . .   . . . .  . . .   .

E|-----------------------------------|
B|-----------------------------------|
G|---------7---------------7---------|
Bb|-7-9-9-9-7-9-9-9-7-9-9-9-7-9-7-7-7-|
F |-7-9-9-9-5-9-9-9-7-9-9-9-5-9-7-7-7-|
C|-5-7-7-7---7-7-7-5-7-7-7---7-5-5-5-|
    . . . .   . . . . . . .   . . . .

Guitar Solo, easy as shit:

E|---------------------------------------------------------------------|
B|---------------------------------------------------------------------|
G|*-----5-[7b](9)-----5-[7b](9)-----5-[7b](9)7b(9)7b(9)7b(9)7b(9)7b(9)-|
D|-5-7------------5-7-----------5-7------------------------------------|
A|---------------------------------------------------------------------|
E|---------------------------------------------------------------------|
    . .  .         . . .         . . .

E|-------------------------------------------------------------------|
B|-------------------------------------------------------------------|
G|--7h9p7--------7h9p7--------7h9p7--------7h9p7---------------------|
D|--------7--7-9-------7--7-9-------7--7-9-------7--7-999-7-999------|
A|-------------------------------------------------------------------|
E|-------------------------------------------------------------------|

E|-----------------------------|
B|-----------------------------|
G|-------7-999-----------------|
D|-7-999-------7-899-7-899-----|
A|-----------------------------|
E|-----------------------------|

E|-----------------------------------------------------------|
B|*-15b(17)15b(17)15(17)15b(17)15b(17)17b(19)17b(19)17b(19)--|
G|-----------------------------------------------------------|
D|-----------------------------------------------------------|
A|-----------------------------------------------------------|
E|-----------------------------------------------------------|

E|----------------------------|
B|----------------------------|
G|-----7-[9]------------------|
D|-7-9-------7-8-[9]-7-8-[9]--|
A|----------------------------|
E|----------------------------|

E|---------------------------------------------------|
B|---------------------------------------------------|
G|-----7-[9]---------| {7-9}======================-----|
D|-7-9-------7-8-[9]---------------------------------|
A|---------------------------------------------------|
E|---------------------------------------------------|

Riff 6
E|---------------------------------------------------|
B|---------------------------------------------------|
G|-2-2-2-2----2---2-2---2--2-2-2-2---2---2-2/7-7-7---|
D|---------6-6-6-5-5-6-6-6--------6-6-6-5-----7-7-7--|
A|---------------------------------------------------|
E|---------------------------------------------------|

Riff 7
E|-------------------------------------------------|
B|-------------------------------------------------|
G|-----9-------------------9-----------------------|
D|-9-9-9-9-7-7-7-7-9-9-9-9-9-9-7-7-7---------------|
A|-9-9-7-9-7-7-7-7-9-9-9-9-7-9-7-7-7/(14)14--------|
E|-7-7---7-5-5-5-5-7-7-7-7---7-5-5-5/(12)12--------|
        .   .     .   .     .   .

Play Riff 7 3X
Play Riff 6
Play Riff 7 3X
Play Riff 6
Outros vídeos desta música
    2 exibições
      • ½ Tom
      • A
      • Bb
      • B
      • C
      • Db
      • D
      • Eb
      • E
      • F
      • F#
      • G
      • Ab
    • Adicionar à lista

    Afinação da cifra

    Afinador online

      0 comentários

      Ver todos os comentários

      Conseguiu tocar?

      0Tocaram0Ainda não

      Grave um vídeo tocando Paegan Love Song e nos envie!

      Toque também

      1. Imagem do artista Electric WizardFuneralopolis Electric Wizard
      2. Imagem do artista EyehategodGodsong Eyehategod
      3. Imagem do artista CrowbarDead Sun Crowbar
      4. Imagem do artista Soilent GreenBuild Fear Soilent Green

      Entre para o Cifra Club PRO

      Tenha acesso a benefícios exclusivos no App e no Site

      • Chega de anúncios

      • Badges exclusivas

      • Mais recursos no app do Afinador

      • Atendimento Prioritário

      • Aumente seu limite de lista

      • Ajude a produzir mais conteúdo

      Cifra Club Pro

      Aproveite o Cifra Club com benefícios exclusivos e sem anúncios
      Cifra Club Pro
      Aproveite o Cifra Club com benefícios exclusivos e sem anúncios
      Ops (: Contenido disponible sólo en portugués.
      OK