Cifra Club

Aprenda

Turning Tables

Adele

Cifra: Tablatura (violão e guitarra)
tom: C#m (forma dos acordes no tom de Bm) Capotraste na 2ª casa
Versos:
E|---------------5-|---------------5-|---------------5-|---------------5-|
B|0h--3---0h--3----|0h--3---0h--3----|0h--3---0h--3----|0h--3---0h--3----|
G|-----------------|-----------------|-----------------|-----------------|
D|-----------------|-----------------|-----------------|-----------------|
A|2----------------|2----------------|-----------------|-----------------|
E|-----------------|-----------------|3----------------|3----------------|

E|---------------2-|---------------2-|---------------3-|------------3--2---|
B|0h--3---0h--3----|0h--3---0h--3----|0h--3---0h--3----|0h--3---0h--------3|
G|-----------------|-----------------|-----------------|-------------------|
D|-----------------|-----------------|-----------------|-------------------|
A|-----------------|-----------------|-----------------|-------------------|
E|0----------------|0----------------|3----------------|3------------------|

Pré-Refrão:
E|---------------0--------|---------------0--------|---------------0--------|--0---|
B|0h--2h--3---------3---2-|0h--2h--3---------3---2-|0h--2h--3---------2-----|--2---|
G|------------------------|------------------------|----------------------3-|--0---|
D|------------------------|------------------------|------------------------|--2---|
A|------------------------|------------------------|------------------------|--0---|
E|3-----------------------|0-----------------------|3-----------------------|------|

Refrão:
E|--5---2---5---2---2-------2-------3---2-----|--5---2---5---2---2-------2-------2h3---2--|
B|--3-------3-------3---3-------3-----------3-|--3-------3-------3---3-------3------------|
G|--2---------------2-------------------------|--2---------------2------------------------|
D|--4---------------0-------------------------|--4---------------0------------------------|
A|--2-----------------------------------------|--2----------------------------------------|
E|----------3---------------------------------|----------3--------------------------------|

E|------0---2---5---7---5---------------|------------------3--|
B|--3-------3-------7---7---7h---8---7--|--5---7---8---7---3--|
G|----------2-------0-------------------|----------9---7---4--|
D|----------4---------------------------|----------9---7---5--|
A|----------2---------------------------|----------7---5---5--|
E|--------------------------------------|------------------3--|
Composição de Adele Adkins / Ryan Tedder
Colaboração e revisão:
  • Jonathan Pessoa
4.737 exibições
    • ½ Tom
    • Am
    • Bbm
    • Bm
    • Cm
    • C#m
    • Dm
    • Ebm
    • Em
    • Fm
    • F#m
    • Gm
    • G#m
  • Adicionar à lista

    0 comentários

    Ver todos os comentários

    Conseguiu tocar?

    0 Tocaram 0 Ainda não

    Grave um vídeo tocando Turning Tables e nos envie!

    00:00 / 00:00
    Outros vídeos desta música
    Repetir Qualidade Automático
    Outros vídeos desta música
    00:00 / 00:00
    Automático

    Cifra Club Pro

    Aproveite o Cifra Club com benefícios exclusivos e sem anúncios
    Cifra Club Pro
    Aproveite o Cifra Club com benefícios exclusivos e sem anúncios
    OK