Cifra Club

Tá Na Minha Hora

Adriana Calcanhotto

Cifra: Principal (violão e guitarra)
Selo Cifra Club: esta cifra foi revisada para atender aos critérios oficiais da nossa Equipe de Qualidade.
tom: D
Intro:

      G6           F#7                   G7
E|-----------------------------------------|
B|-----------------------------------------|
G|-----------------------------------------|
D|------0-2----0--------0-2-4-2-0----------|
A|----2----------2-4--------------4-2-0----|
E|-3------------------------------------3--|

      G7        F#7
E|-----------------------------------------|
B|-----------------------------------------|
G|-----------------------------------------|
D|---0-2----0-----------4--2-0-------------|
A|-2----------2-4--------------4-2-0-------|
E|-----------------------------------3-----|

            Bm                         F#7
Te fiz uns sambas, neguinho, te dei carinho
         Bm                   F#7
Despi as suas fantasias devagarinho
       Bm                        F#7
Da sua onipotência tratei com jeitinho
         Bm                        F#7
E das chegadas de madrugada no sapatinho

 G6         F#7
Agora tá na minha hora
   G7                          F#7
Eu vou passar uns tempos em mangueira
     G6                  F#7
Não chora, neguinho, não chora
G7                     F#7
O meu coração é da estação primeira

   Bm                Bm/D           F#7
Te deixo a geladeira cheia e sem promessa
    Bm           Bm/D         F#7
Que findo o carnaval eu tô de volta
    G6                   F#7
Não chora, neguinho, não chora
G7                    F#7
O meu coração é verde rosa
    G6                   F#7
Não chora, neguinho, não chora
            G7                F#7
Tá na minha hora, tá na minha hora

Ritmo:

      Bm                  F#7
E|-------------------|-------------------|
B|-3-3-3---3-3-3---3-|-2-2-2---2-2-2---2-|
G|-4-4-4---4-4-4---4-|-3-3-3---3-3-3---3-|
D|-4-4-4---4-4-4---4-|-2-2-2---2-2-2---2-|
A|-2-----2---2---2---|-------------------|
E|-------------------|-2-----2---2---2---|

Variação com inclusão do Bm/D:

      Bm      Bm/A      F#7
E|-------------------|-------------------|
B|-3-3-3---3-3-3---3-|-2-2-2---2-2-2---2-|
G|-4-4-4---4-4-4---4-|-3-3-3---3-3-3---3-|
D|-4-4-4---4-4-4---4-|-2-2-2---2-2-2---2-|
A|-2-----2---0---0---|-------------------|
E|-------------------|-2-----2---2---2---|
Outros vídeos desta música
1.512 exibições
    • ½ Tom
    • A
    • Bb
    • B
    • C
    • Db
    • D
    • Eb
    • E
    • F
    • F#
    • G
    • Ab
  • Adicionar à lista

Afinação da cifra

Afinador online

    0 comentários

    Ver todos os comentários

    Entre para o Cifra Club PRO

    Tenha acesso a benefícios exclusivos no App e no Site

    • Chega de anúncios

    • Mais recursos no app do Afinador

    • Atendimento Prioritário

    • Aumente seu limite de lista

    • Ajude a produzir mais conteúdo

    Cifra Club Pro

    Aproveite o Cifra Club com benefícios exclusivos e sem anúncios
    Cifra Club Pro
    Aproveite o Cifra Club com benefícios exclusivos e sem anúncios
    OK