Cifra Club

Valerie

Amy Winehouse

Cifra: Principal (violão e guitarra)
exibições 497.910
Tom: Eb
[Inicio Primeira parte]

E|-11/13-13-13-11--------------------------------------|
B|-11/13-13-13-11--------------------------------------|
G|-----------------------------------------------------|
D|-----------------------------------------------------|
A|-----------------------------------------------------|
E|-----------------------------------------------------|
   ↓      ↓  ↑  ↓

[Primeira Parte]

           Eb7M  
Well, sometimes I go out by myself
                       Fm7
And I look across the water
        Eb7M
And I think of all the things 

Of what you're doing
                      Fm7
In my head I paint a picture

[Pré-refrão]

 Ab7M 
Since I've come home
          Gm
Well, my body's been a mess
       Ab7M
And I miss your ginger hair
         Gm
And the way you like to dress
Ab7M
  Oh, won't you come on over?
Gm                            Bb
   Stop making a fool out of me
  Bb7(4/9)
Why don't you come on over

[TAB - Solo Pré-refrão]

Parte 1 de 3
E|-8-----8-6-----6--8-----8-6-----6---------|
B|---9-------8--------9-------8-------------|
G|-----8-------7--------8-------7-----------|
D|------------------------------------------|
A|------------------------------------------|
E|------------------------------------------|

Parte 2 de 3
E|-8-----8-----8----6-----6-----6-----------|
B|---9-----9-----9----8-----8-----8---------|
G|-----8-----8----------7-----7-------------|
D|------------------------------------------|
A|------------------------------------------|
E|------------------------------------------|
  
Parte 3 de 3
E|------------------------------------------|
B|-6-6-6-6-6--6---6-6-6-6-6-----------------|
G|-7-7-7-7-7--7---7-7-7-7-7-----------------|
D|-8-8-8-8-8--6---6-6-6-6-6-----------------|
A|------------------------------------------|
E|------------------------------------------|
   ↓ ↓ ↑ ↓ ↓  ↓   ↓ ↑ ↓ ↓ ↓

[Refrão]

     Eb7M     Fm7
Valerie, Valerie
     Eb7M     Fm7
Valerie, Valerie

[TAB - Refrão]

Parte 1 de 2
   Eb7M      
E|-6-6-6-x-6-6------------------------------|
B|-8-8-8-x-8-8---------9/11-11-11-11\9---9--|
G|-7-7-7-x-7-7--------10/12-12-12-12\10-10--|
D|-8-8-8-x-8-8------8-----------------------|
A|-6-6-6-x-6-6-8/10-------------------------|
E|------------------------------------------|
   ↓ ↓ ↑ ↓ ↓ ↓
Parte 2 de 2
    Fm7
E|--9--9--9-x-11-11-11-11/13-13-13-13\11-11-|
B|-10-10-10-x-10-10-10-11/13-13-13-13\11-11-|
G|--9--9--9-x--9--9--9----------------------|
D|-11-11-11-x-11-11-11----------------------|
A|--9--9--9-x--9--9--9----------------------|
E|------------------------------------------|
    ↓  ↓  ↑ ↓  ↓  ↓  ↓  ↓     ↓  ↑  ↓     ↓

[Segunda Parte]

         Eb7M
Did you have to go to jail?

Put your house out up for sale?
                    Fm7
Did you get a good lawyer?
            Eb7M
I hope you didn't catch a tan,

Hope you find the right man
               Fm7
Who'll fix it for you

          Eb7M
Are you shopping anywhere?

Change the color of your hair
             Fm7
And are you busy?
         Eb7M
Did you have to pay that fine

That you were dodging all the time?
               Fm7
Are you still dizzy?

[Pré-refrão]

 Ab7M 
Since I've come home
          Gm
Well, my body's been a mess
       Ab7M
And I miss your ginger hair
         Gm
And the way you like to dress
Ab7M
  Oh, won't you come on over?
Gm                            Bb
   Stop making a fool out of me
  Bb7(4/9)
Why don't you come on over

[TAB - Solo Pré-refrão]

Parte 1 de 3
E|-8-----8-6-----6--8-----8-6-----6---------|
B|---9-------8--------9-------8-------------|
G|-----8-------7--------8-------7-----------|
D|------------------------------------------|
A|------------------------------------------|
E|------------------------------------------|

Parte 2 de 3
E|-8-----8-----8----6-----6-----6-----------|
B|---9-----9-----9----8-----8-----8---------|
G|-----8-----8----------7-----7-------------|
D|------------------------------------------|
A|------------------------------------------|
E|------------------------------------------|
  
Parte 3 de 3
E|------------------------------------------|
B|-6-6-6-6-6--6---6-6-6-6-6-----------------|
G|-7-7-7-7-7--7---7-7-7-7-7-----------------|
D|-8-8-8-8-8--6---6-6-6-6-6-----------------|
A|------------------------------------------|
E|------------------------------------------|
   ↓ ↓ ↑ ↓ ↓  ↓   ↓ ↑ ↓ ↓ ↓

[Refrão]

     Eb7M     Fm7
Valerie, Valerie
     Eb7M     Fm7
Valerie, Valerie

[TAB - Refrão]

Parte 1 de 2
   Eb7M      
E|-6-6-6-x-6-6------------------------------|
B|-8-8-8-x-8-8---------9/11-11-11-11\9---9--|
G|-7-7-7-x-7-7--------10/12-12-12-12\10-10--|
D|-8-8-8-x-8-8------8-----------------------|
A|-6-6-6-x-6-6-8/10-------------------------|
E|------------------------------------------|
   ↓ ↓ ↑ ↓ ↓ ↓
Parte 2 de 2
    Fm7
E|--9--9--9-x-11-11-11-11/13-13-13-13\11-11-|
B|-10-10-10-x-10-10-10-11/13-13-13-13\11-11-|
G|--9--9--9-x--9--9--9----------------------|
D|-11-11-11-x-11-11-11----------------------|
A|--9--9--9-x--9--9--9----------------------|
E|------------------------------------------|
    ↓  ↓  ↑ ↓  ↓  ↓  ↓  ↓     ↓  ↑  ↓     ↓

[Primeira Parte]

           Eb7M  
Well, sometimes I go out by myself
                       Fm7
And I look across the water
        Eb7M
And I think of all the things 

Of what you're doing
                      Fm7
In my head I paint a picture

[Pré-refrão]

 Ab7M 
Since I've come home
          Gm
Well, my body's been a mess
       Ab7M
And I miss your ginger hair
         Gm
And the way you like to dress
Ab7M
  Oh, won't you come on over?
Gm                            Bb
   Stop making a fool out of me
  Bb7(4/9)
Why don't you come on over

[TAB - Solo Pré-refrão]

Parte 1 de 3
E|-8-----8-6-----6--8-----8-6-----6---------|
B|---9-------8--------9-------8-------------|
G|-----8-------7--------8-------7-----------|
D|------------------------------------------|
A|------------------------------------------|
E|------------------------------------------|

Parte 2 de 3
E|-8-----8-----8----6-----6-----6-----------|
B|---9-----9-----9----8-----8-----8---------|
G|-----8-----8----------7-----7-------------|
D|------------------------------------------|
A|------------------------------------------|
E|------------------------------------------|
  
Parte 3 de 3
E|------------------------------------------|
B|-6-6-6-6-6--6---6-6-6-6-6-----------------|
G|-7-7-7-7-7--7---7-7-7-7-7-----------------|
D|-8-8-8-8-8--6---6-6-6-6-6-----------------|
A|------------------------------------------|
E|------------------------------------------|
   ↓ ↓ ↑ ↓ ↓  ↓   ↓ ↑ ↓ ↓ ↓

[Refrão final]

     Eb7M     Fm7
Valerie, Valerie
     Eb7M     Fm7
Valerie, Valerie
     Eb7M     Fm7
Valerie, Valerie
     Eb7M     Fm7
Valerie, Valerie
                                 Eb7M
Why don't you come on over, Valerie?
Acordes para:

    0 comentários

    mostrar mais comentários

    Conseguiu tocar?

    48 tocaram 3 ainda não

    Grave um vídeo tocando Valerie e mande pra gente!

    00:00 / 00:00
    outros vídeos desta música
    repetir qualidade Automático
    Outros vídeos desta música
    00:00 / 00:00
    Automático
    OK