Cifra Club

Valentín de la Sierra

Ana Gabriel

Cifra: Principal (violão e guitarra)
Selo Cifra Club: esta cifra foi revisada para atender aos critérios oficiais da nossa Equipe de Qualidade.
tom: C
E|-------7---7-7-7---8--7--8--5--5-5-7-5-7--3---3-3-7-5-3-1---0---0---0--0--|
B|-------8---8-8-8---10-8--10-6--6-6-8-6-8--5---5-5-8-6-5-3---1---1---1--1--|
G|------------------------------------------------------------0---0---0--0--|
D|------------------------------------------------------------2---2---2--2--|
A|-3-2-0----------------------------------------------------3---------------|
E|------------------------------------------------------------------3-------|


C
Voy a cantar un corrido,
                   G7
de un amigo de mi tierra
                F                G7
llamadose Valentín, que fue fusilado
                 C
y colgado en la sierra


No me quisiera acordar,
                    G7
era una tarde de invierno
                     F
cuando por su mala suerte
           G7                 C
cayo Valentín en manos del gobierno


El capitan le decía,
                      G7
cual es la gente que mandas
                    F
son ochocientos soldados,
              G7                   C
que tienen sitiada la hacienda de Holandas


El coronel le pregunta,
                      G7
cual es la gente que guías
                    F
son ochocientos soldados,
                 G7               C
que trae por la sierra Mariano Mejía


E|--3--3--3-3--1--0--1--3--7---7-7-7---8--7--8--5--5-5-7-5-7--3-|
B|--5--5--5-5--3--1--3--5--8---8-8-8---10-8--10-6--6-6-8-6-8--5-|
G|--------------------------------------------------------------|
D|--------------------------------------------------------------|
A|--------------------------------------------------------------|
E|--------------------------------------------------------------|

E|--3-3-7-5-3--1-----0----------------------------|
B|--5-5-8-6-5-3---3-1--------------------0--0--1--|
G|---------------4-----------0--0--2--2-----------|
D|------------------------------------------------|
A|------------------------------------------------|
E|------------------------------------------------|


C
Valentín como era hombre
                   G7
de nada les dio razón
                     F
yo soy de los meros hombres,
                  G7             C
los que han inventado la revolución


El capitan le decía,
                    G7
yo te concedo el indulto
                 F
pero me vas a decir
              G7
cual es el jurado
                C
y la causa que juzgo


Antes de llegar al cerro
                   G7
Valentín quiso llorar
                   F
madre mía de Guadalupe,
             G7             C
por tu religión me van a matar


Vuela, vuela palomita,
                  G7
párate en ese fortín
                   F
estas son las mañanitas
                G7                  C
de un hombre valiente que fue Valentín
Outros vídeos desta música
    189 exibições
      • ½ Tom
      • A
      • Bb
      • B
      • C
      • Db
      • D
      • Eb
      • E
      • F
      • F#
      • G
      • Ab
    • Adicionar à lista

    Afinação da cifra

    Afinador online

      0 comentários

      Ver todos os comentários

      Conseguiu tocar?

      0Tocaram0Ainda não

      Grave um vídeo tocando Valentín de la Sierra e nos envie!

      Toque também

      1. Imagem do artista Juan GabrielAmor Eterno Juan Gabriel
      2. Imagem do artista Marco Antonio SolísSi No Te Hubieras Ido Marco Antonio Solís
      3. Imagem do artista Alejandra GuzmánYo te esperaba Alejandra Guzmán
      4. Imagem do artista Daniela RomoYo no te pido la luna Daniela Romo

      Entre para o Cifra Club PRO

      Tenha acesso a benefícios exclusivos no App e no Site

      • Chega de anúncios

      • Badges exclusivas

      • Mais recursos no app do Afinador

      • Atendimento Prioritário

      • Aumente seu limite de lista

      • Ajude a produzir mais conteúdo

      Cifra Club Pro

      Aproveite o Cifra Club com benefícios exclusivos e sem anúncios
      Cifra Club Pro
      Aproveite o Cifra Club com benefícios exclusivos e sem anúncios
      OK