Cifra Club

Paris

April

Cifra: Principal (violão e guitarra)
Selo Cifra Club: esta cifra foi revisada para atender aos critérios oficiais da nossa Equipe de Qualidade.
tom: C
[Intro]
E|---------------------------------------------------------------------------------------|
B|------10---------10--10--10---------10--10-----8---8---------8---10--10--------10--10--|
G|------10---------10--10--10---------10--10-----9---9---------9---9---9---------9---9---|
D|------10---------10--9---9----------9---9------9---9---------9---10--10--------10--10--|
A|---------------------10--10--0--10-------------x---x---------x---8---8---0--8----------|
E|--10------0--10-----------------------------0--8---8---0--8--8-------------------------|

E|----------------------------------------------------------------------|
B|----------------------------------------5-----5-------5---------------|
G|--------7--------7----------------------5-----4h5-----5--4h5p4--------|
D|--------7--------7--7-----6-------------5-----5-------5---------5--0--|
A|--------8--------8-----8-----7----------------------------------------|
E|--0--7-----0--7-----7-----7-----7--0--5----0-------5------------------|
Outros vídeos desta música
    0 exibições
      • ½ Tom
      • A
      • Bb
      • B
      • C
      • Db
      • D
      • Eb
      • E
      • F
      • F#
      • G
      • Ab
    • Adicionar à lista

    Afinação da cifra

    Afinador online

      0 comentários

      Ver todos os comentários

      Conseguiu tocar?

      0Tocaram0Ainda não

      Grave um vídeo tocando Paris e nos envie!

      Toque também

      1. Imagem do artista Minor ThreatI Dont Wanna Hear It Minor Threat
      2. Imagem do artista H2oEverready H2o
      3. Imagem do artista Astrid LindgrenEmil Och Griseknoen - Idas Sommarvisa Astrid Lindgren
      4. Imagem do artista SchizmaDom Schizma

      Entre para o Cifra Club PRO

      Tenha acesso a benefícios exclusivos no App e no Site

      • Chega de anúncios

      • Badges exclusivas

      • Mais recursos no app do Afinador

      • Atendimento Prioritário

      • Aumente seu limite de lista

      • Ajude a produzir mais conteúdo

      Cifra Club Pro

      Aproveite o Cifra Club com benefícios exclusivos e sem anúncios
      Cifra Club Pro
      Aproveite o Cifra Club com benefícios exclusivos e sem anúncios
      Ops (: Contenido disponible sólo en portugués.
      OK