Cifra Club

Te Deseo Lo Mejor

Bad Bunny

Cifra: Principal (violão e guitarra)
Selo Cifra Club: esta cifra foi revisada para atender aos critérios oficiais da nossa Equipe de Qualidade.
tom: Db
E|------------------|-------------------|-------------------|-------------------|
B|------------------|-------------------|-------------------|-------------------|
G|-----1--------1---|--------5-------5--|------10-------10--|-----5------5------|
D|------------------|-------------------|-------------------|-------------------|
A|------------------|-------------------|-------------------|-------------------|
E|-2--------2-------|---6--------6------|--9--------9-------|--4------4---------|

E|------------------|-------------------|-------------------|-------------------|
B|------------------|-------------------|-------------------|-------------------|
G|-----1--------1---|--------5-------5--|------10-------10--|-----5------5------|
D|------------------|-------------------|-------------------|-------------------|
A|------------------|-------------------|-------------------|-------------------|
E|-2--------2-------|---6--------6------|--9--------9-------|--4------4---------|
Outros vídeos desta música
379 exibições
    • ½ Tom
    • A
    • Bb
    • B
    • C
    • Db
    • D
    • Eb
    • E
    • F
    • F#
    • G
    • Ab
  • Adicionar à lista

Afinação da cifra

Afinador online

    0 comentários

    Ver todos os comentários

    Entre para o Cifra Club PRO

    Tenha acesso a benefícios exclusivos no App e no Site

    • Chega de anúncios

    • Mais recursos no app do Afinador

    • Atendimento Prioritário

    • Aumente seu limite de lista

    • Ajude a produzir mais conteúdo

    Cifra Club Pro

    Aproveite o Cifra Club com benefícios exclusivos e sem anúncios
    Cifra Club Pro
    Aproveite o Cifra Club com benefícios exclusivos e sem anúncios
    OK