Cifra Club

Te Presumo

Banda El Recodo De Cruz Lizárraga

Cifra: Principal (violão e guitarra)
Selo Cifra Club: esta cifra foi revisada para atender aos critérios oficiais da nossa Equipe de Qualidade.
tom: G
(1Ra guitarra)
E|-2-3-5--5-5-5----2-3-5--5-5-5--3-2-0-2-0--|
B|-3-5-7--7-7-7----3-5-7--7-7-7--5-3-2-3-2--|
G|-----6--6-6-6--------6--6-6-6-------------|
D|------------------------------------------|
A|------------------------------------------|
E|------------------------------------------|

(Esto va algo rápido)

E|-8-9--10-10-10-9--10-9--10-10-10--9-7-7-5--|
B|-9-10-12-12-12-10-12-10-12-12-12-10-9-9-6--|
G|-------------------------------------------| [X2]
D|-------------------------------------------|
A|-------------------------------------------|
E|-------------------------------------------|

(2Da guitarra)
(F/G es un puente para pasar a Em si quieres no lo uses)
Nota: este bajeo solo será en el requinto
        G        G        *       Em        C           D
E|------3| e|------3  e|------3 e|------3  e|------3  e|------2
B|------3| b|------3  b|------3 b|------3  b|------3  b|------3
G|------0| g|------0  g|------0 g|------0  g|------0  g|------2
D|------0| D|------0  D|------0 D|------2  D|------2  D|------0
A|-0-2--2| A|-0-2--2  A|------0 A|------2  A|-2-3--3  A|------x
E|------3| E|------3  E|------2 E|------0  E|------x  E|------x








   G
Te presumo
           *                         Em
Por que un verdadero amor nunca se esconde
       C                         D
Porque es un gran orgullo ser tu hombre
    G
Te presumo
                 *            Em
Porque eres para mi un gran tesoro
         C                            D
Y quiero estar junto a ti de cualquier modo

[Refrão]

      G
Te presumo
                 *            Em
Porque eres para mi toda una reina
      C
Me fascina el saber
                       D
Que tu me quieres y deseas
      G
Te presumo
                *                Em
Como un loco te menciono todo el día
       C
Te presumo
                  D          G          D
Para que el mundo sepa que eres mía


(1Ra guitarra)
E|-2-3-5--5-5-5----2-3-5--5-5-5--3-2-0-2-0--|
B|-3-5-7--7-7-7----3-5-7--7-7-7--5-3-2-3-2--|
G|-----6--6-6-6--------6--6-6-6-------------|
D|------------------------------------------|
A|------------------------------------------|
E|------------------------------------------|

(Esto va algo rápido)

E|-8-9--10-10-10-9--10-9--10-10-10--9-7-7-5--|
B|-9-10-12-12-12-10-12-10-12-12-12-10-9-9-6--|
G|-------------------------------------------|
D|-------------------------------------------|
A|-------------------------------------------|
E|-------------------------------------------|




      G
Te presumo
         *                   Em
Porque la verdad pareces muñequita
       C                    D
Andes como andes nadie te lo quita
       G
Y me siento poderoso como
*                Em
Ningún otro humano
      C                      D
Cada vez que yo te tomo de la mano

[Refrão]

Te presumo
                 *              Em
Porque eres para mi toda una reina
      C
Me fascina el saber
                       D
Que tu me quieres y deseas
      G
Te presumo
                *                 Em
Como un loco te menciono todo el día
       C
Te presumo
                  D          G          D
Para que el mundo sepa que eres mía


(1Ra guitarra)
E|-2-3-5--5-5-5----2-3-5--5-5-5--3-2-0-2-0--|
B|-3-5-7--7-7-7----3-5-7--7-7-7--5-3-2-3-2--|
G|-----6--6-6-6--------6--6-6-6-------------|
D|------------------------------------------|
A|------------------------------------------|
E|------------------------------------------|

(Esto va algo rápido)

E|-8-9--10-10-10-9--10-9--10-10-10--9-7-7-5--|
B|-9-10-12-12-12-10-12-10-12-12-12-10-9-9-6--|
G|-------------------------------------------|
D|-------------------------------------------|
A|-------------------------------------------|
E|-------------------------------------------|


(Para terminar puedes meter esto o hazlo a tu manera)

              G
E|-2-3-2-0---3---|
B|-3-5-3-2---3---|
G|-----------0---|
D|-----------0---|
A|-----------2---|
E|-----------3---|
00:00 / 00:00
Outros vídeos desta música
Repetir
Outros vídeos desta música
4.672 exibições
    • ½ Tom
    • A
    • Bb
    • B
    • C
    • Db
    • D
    • Eb
    • E
    • F
    • F#
    • G
    • Ab
  • Adicionar à lista

Afinação da cifra

Afinador online

    0 comentários

    Ver todos os comentários

    Conseguiu tocar?

    0 Tocaram 1 Ainda não

    Grave um vídeo tocando Te Presumo e nos envie!

    Toque também

    1. Imagem do artista Calibre 50 Simplemente Gracias Calibre 50
    2. Imagem do artista Banda Los Recoditos Mi último deseo Banda Los Recoditos
    3. Imagem do artista Banda Carnaval Pídeme Banda Carnaval
    4. Imagem do artista Banda Jerez Por una lágrima Banda Jerez

    Entre para o Cifra Club PRO

    Tenha acesso a benefícios exclusivos no App e no Site

    • Chega de anúncios

    • Mais recursos no app do Afinador

    • Atendimento Prioritário

    • Aumente seu limite de lista

    • Ajude a produzir mais conteúdo

    00:00 / 00:00

    Cifra Club Pro

    Aproveite o Cifra Club com benefícios exclusivos e sem anúncios
    Cifra Club Pro
    Aproveite o Cifra Club com benefícios exclusivos e sem anúncios
    OK