Cifra Club

Crawling After You

Bass Drum Of Death

Cifra: Principal (violão e guitarra)
Tom: F#m
[Intro] - Rhythm
E|----------------------------------------------------------------|
B|----------------------------------------------------------------|
G|----------------------------------------------------------------|
D|9-9-9-9-9-9-9-9-11111111111111116-6-6-6-6-6-6-6-6-6-6-6-6-6-6-6-|
A|9-9-9-9-9-9-9-9-11111111111111116-6-6-6-6-6-6-6-6-6-6-6-6-6-6-6-|
E|7-7-7-7-7-7-7-7-9-9-9-9-9-9-9-9-4-4-4-4-4-4-4-4-4-4-4-4-4-4-4-4-|

Intro - Lead (the bends are arbitrary) [piece between brackets needs minor work]
E|-----------------------------------------------------------------|
B|-----------------------------------------------------------------|
G|--------8-8-8-8---------10101010---------------------------------|
D|9-9-9-9-9-9-9-9-11111111111111116-6-6-6-6-6-6-6-6-6-6-6-6-6-6-6--|
A|9-9-9-9---------11111111--------6-6-6-6-6-6-6-6-6-6-6-6-6-6-6-6--|
E|7-7-7-7---------9-9-9-9---------4-4-4-4-4-4-4-4b4-4-4-4-4-4-4-4--|r

E|-----------------------------------------------------------------|
B|--------------------------------9-9-9-9-9-9-9-9-9-9-9-9----------|
G|--------8-8-8-8---------10101010------------------------119------|
D|9-9-9-9-9-9-9-9-1111111111111111----------------------------119--|
A|9-9-9-9---------11111111-----------------------------------------|
E|7-7-7-7---------9-9-9-9------------------------------------------|

[Verse]
E|----------------------------------------------------------------|
B|----------------------------------------------------------------|
G|----------------------------------------------------------------|
D|----------------------------------------------------------------|
A|2-2-2-2-2-2-2-2-4-4-4-4-4-4-4-4---------------------------------|
E|--------------------------------4-4-4-4-4-4-4-4-4-4-4-4-4-4-4-0-|

E|----------------------------------------------------------------|
B|----------------------------------------------------------------|
G|----------------------------------------------------------------|
D|--------------------------------2-2-2-2-2-2-2-2-2-2-2-2-2-2-2-0-|
A|2-2-2-2-2-2-2-2-4-4-4-4-4-4-4-4---------------------------------|
E|----------------------------------------------------------------|

[Chorus] - Rhythm
E|----------------------------------------------------------------|
B|----------------------------------------------------------------|
G|----------------------------------------------------------------|
D|9-9-9-9-9-9-9-9-11111111111111116-6-6-6-6-6-6-6-6-6-6-6-6-6-6-6-|
A|9-9-9-9-9-9-9-9-11111111111111116-6-6-6-6-6-6-6-6-6-6-6-6-6-6-6-|
E|7-7-7-7-7-7-7-7-9-9-9-9-9-9-9-9-4-4-4-4-4-4-4-4-4-4-4-4-4-4-4-4-|

Chorus - Lead
E|----------------------------------------------------------------|
B|----------------------------------------------------------------|
G|----------------------------------------------------------------|
D|9-9-9-9-9-9-9-9-9-9-9-9-9-9-9-9-9-9-9-9-9-9-9-9-9-9-9-9-9-9-9-9-|
A|----------------------------------------------------------------|
E|----------------------------------------------------------------|

[Bridge]
E|----------------------------------------------------------------|
B|----------------------------------------------------------------|
G|1111111111111111111111111111111111111111111111111111111111111111
D|1111111111111111111111111111111111111111111111111111111111111111
A|9-9-9-9-9-9-9-9-9-9-9-9-9-9-9-9-9-9-9-9-9-9-9-9-9-9-9-9-9-9-9-9-|
E|----------------------------------------------------------------|

E|----------------------------------------------------------------|
B|----------------------------------------------------------------|
G|9-9-9-9-9-9-9-9-----------------9-9-9-9-9-9-9-9-----------------|
D|9-9-9-9-9-9-9-9-9-9-9-9-9-9-9-9-9-9-9-9-9-9-9-9-9-9-9-9-9-9-9-9-|
A|7-7-7-7-7-7-7-7-9-9-9-9-9-9-9-9-7-7-7-7-7-7-7-7-9-9-9-9-9-9-9-9-|
E|----------------7-7-7-7-7-7-7-7-----------------7-7-7-7-7-7-7-7-|

[Solo]
E|--------------------------------0-0-0-0-0-0-0-0-0-0-0-0-0-0-0-0--|
B|--------------------------------10101010101010101010101010101010-|
G|8-8-8-8-8-8-8-8-10101010101010109-9-9-9-9-9-9-9-9-9-9-9-9-9-9-9--|
D|x-x-x-x-x-x-x-x-x-x-x-x-x-x-x-x----------------------------------|
A|9-9-9-9-9-9-9-9-1111111111111111---------------------------------|
E|-----------------------------------------------------------------|

[Outro] - Rhythm
E|----------------------------------------------------------------|
B|----------------------------------------------------------------|
G|----------------------------------------------------------------|
D|9-9-9-9-9-9-9-9-11111111111111116-6-6-6-6-6-6-6-6-6-6-6-6-6-6-6-|
A|9-9-9-9-9-9-9-9-11111111111111116-6-6-6-6-6-6-6-6-6-6-6-6-6-6-6-|
E|7-7-7-7-7-7-7-7-9-9-9-9-9-9-9-9-4-4-4-4-4-4-4-4-4-4-4-4-4-4-4-4-|

E|----------------------------------------------------------------|
B|----------------------------------------------------------------|
G|--------------------------------9-9-9-9-9-9-9-9-9-9-9-9-9-9-9-9-|
D|9-9-9-9-9-9-9-9-11111111111111119-9-9-9-9-9-9-9-9-9-9-9-9-9-9-9-|
A|9-9-9-9-9-9-9-9-11111111111111117-7-7-7-7-7-7-7-7-7-7-7-7-7-7-7-|
E|7-7-7-7-7-7-7-7-9-9-9-9-9-9-9-9---------------------------------|

Outro - Lead
E|--------------------------------0-0-0-0-0-0-0-0-0-0-0-0-0-0-0-0--|
B|--------------------------------10101010101010101010101010101010-|
G|8-8-8-8-8-8-8-8-10101010101010109-9-9-9-9-9-9-9-9-9-9-9-9-9-9-9--|
D|x-x-x-x-x-x-x-x-x-x-x-x-x-x-x-x----------------------------------|
A|9-9-9-9-9-9-9-9-1111111111111111---------------------------------|
E|-----------------------------------------------------------------|

exibições 204
Acordes para:
    Composição: John Barrett Colaboração e revisão:
    • Mateus Barboza

    0 comentários

    mostrar mais comentários

    Conseguiu tocar?

    0 tocaram 0 ainda não

    Grave um vídeo tocando Crawling After You e mande pra gente!

    00:00 / 00:00
    outros vídeos desta música
    repetir qualidade Automático
    Outros vídeos desta música
    00:00 / 00:00
    Automático
    OK