Cifra Club

Dont Let Me Go

Billy Squier

Cifra: Principal (violão e guitarra)
Selo Cifra Club: esta cifra foi revisada para atender aos critérios oficiais da nossa Equipe de Qualidade.
tom: G
                  F#m         Em
E|---------------|---------------|---0-----------|
B|---------------|---------------|---0-----------|
G|---------------|---0-----------|---0-----------|
D|---------0--2--| 4-----4--0--2--|---2-----------|
A|---------------|---------------|---2-----------|
E|---------------|---------------| 0--0-----------|

                  F#m         Em
E|---------------|---------------|---------------|
B|---------------|---------------|---------------|
G|---------------|---0-----------|---------------|
D|---------0--2--| 4-----4--0--2--|---------------|
A|---------------|---------------|---------------|
E|---------------|---------------|---------------|

                  F#m         Cadd9
E|---------------|---------------|---0-----------|
B|---------------|---------------|---1-----------|
G|---------------|---0-----------|---0-----------|
D|---------0--2--| 4-----4--0-----|---2-----------|
A|---------------|------------3--|---3-----------|
E|---------------|---------------|---0-----------|

                  F#m         Em
E|---------------|---------------|---------------|
B|---------------|---------------|---------------|
G|---------------|---0-----------|---------------|
D|---------0--2--| 4-----4--0--/2-|---------------|
A|---------------|---------------|---------------|
E|---------------|---------------|---------------|

[Verse]
E|---------------|
B|---------------|
G|---------------|
D|---------------|
A|---------------|
E|---------3--2--|

Em G D
       Over and over
Em G D 
       Wanderin through the years
Em G D
       Life is a diamond
Em G D
       Love is a trail of tears

E|---------------|--------------|
B|---------------|--------------|
G|---------------|---0----------| [The Riff]
D|---------0--2--| 4-----4--0----|
A|---------------|--------------|
E|---------------|--------------|

Em G D
       Sometimes I want you
Em G D
       Sometimes I want to fly

E|---------------|--------------|
B|---------------|--------------|
G|---------------|---0----------| [The Riff]
D|---------0--2--| 4-----4--0----|
A|---------------|--------------|
E|---------------|--------------|

Em G D
       I know when I find you
Em G D Cadd9
         No one can stop me now

E|----------0--|
B|----------1--|
G|----------0--|
D|----------2--|
A|----0--2--3--|
E|-------------|
Break you!

[Chorus]
G       D      C
 Don't let me go
        D    
 Don't let me
G       D      C
 Don't let me go
        D    
 Don't let me
G       D      C
 Don't let me go
        D    
 Don't let me
G       D      C
 Don't let me go

[Verse]
[The Riff] 
Em G D
       Watching the seasons
Em G D 
       Can't let you pass me by
Em G D        
       Turning the pages
Em G D
       Why do we have to die

E|---------------|--------------|
B|---------------|--------------|
G|---------------|---0----------| [The Riff]
D|---------0--2--| 4-----4--0----|
A|---------------|--------------|
E|---------------|--------------|

Em G D
       You are the reason
Em G D
       Yours are the final eyes
[The Riff]
Em G D 
       And when I hold you
Em G D Cadd9
         No one can touch me now
Break through!

[Chorus]
G       D      C
 Don't let me go
        D    
 Don't let me
G       D      C
 Don't let me go
        D    
 Don't let me
G       D      C
 Don't let me go
        D    
 Don't let me
G       D      C
 Don't let me go

[Bridge]
   Cadd9
E|-------------------------------|
B|-------------------------------|
G|-------------------------------|
D|-------------------------------|
A|--3--3-----0--2--3---0--2--3--3|
E|-------------------------------|

E|------------------|
B|------------------|
G|------------------|
D|------------------|
A|--0--2--3---3--2--|
E|------------------|

Em G D x4

E|---------------|--------------|
B|---------------|--------------|
G|---------------|---0----------| [The Riff]
D|---------0--2--| 4-----4--0----|
A|---------------|--------------|
E|---------------|--------------|

Em G D x2

E|---------------|--------------|
B|---------------|--------------|
G|---------------|---0----------| [The Riff]
D|---------0--2--| 4-----4--0----|
A|---------------|--------------|
E|---------------|--------------|

Em G D
Em G D Cadd9
         Can't let her hold you down 

E|------------|
B|------------|
G|------------|
D|------------|
A|--0--2--3---|
E|------------|
Break you! 

[Chorus]

[Outro]
G            D
 Never wanna say goodbye
C           D
 Never wanna make you cry
G     D                    C  D
    I never wanna see you go 
G                D           
  I'm just gonna close my eyes
C                    D
  You're the one who makes me realise
G D               C  D
    Don't let me go
G  D      C  D 
 Woo-oo! Woo-oo! Don't let me go

G D 

   Cadd9
E|-------------------------------|
B|-------------------------------|
G|-------------------------------|
D|-------------------------------|
A|--3--3-----0--2--3---0--2--3--3|
E|-------------------------------|
Outros vídeos desta música
    5 exibições
      • ½ Tom
      • A
      • Bb
      • B
      • C
      • Db
      • D
      • Eb
      • E
      • F
      • F#
      • G
      • Ab
    • Adicionar à lista

    Afinação da cifra

    Afinador online

      0 comentários

      Ver todos os comentários

      Entre para o Cifra Club PRO

      Tenha acesso a benefícios exclusivos no App e no Site

      • Chega de anúncios

      • Badges exclusivas

      • Mais recursos no app do Afinador

      • Atendimento Prioritário

      • Aumente seu limite de lista

      • Ajude a produzir mais conteúdo

      Cifra Club Pro

      Aproveite o Cifra Club com benefícios exclusivos e sem anúncios
      Cifra Club Pro
      Aproveite o Cifra Club com benefícios exclusivos e sem anúncios
      OK