Cifra Club

Stay

BLACKPINK

Cifra: Completa (violão e guitarra)
Selo Cifra Club: esta cifra foi revisada para atender aos critérios oficiais da nossa Equipe de Qualidade.
tom: Db (forma dos acordes no tom de D) Afinação: Eb Ab Db Gb Bb Eb
[Intro]
D/B  D4/G  D9  (2x)

[Introdução]


            D/B      D4/G          D9

E|-----------0-2-------3-----------0-----|
B|-----------3---------3----3/5----3-----|
G|-----------2---------2-----------2-----|  [1x]
D|---------------------------------0-----|
A|---4h5--4--2---------------------------|
E|---------------------3-----------------|


            D/B      D4/G          D9
                            (H.N)
E|-----------0-2-------3-----------0-----|
B|-----------3---------3-----------3-----|
G|-----------2---------2-----(7)---2-----|  [1x]  (H.N: harmônico natural)
D|---------------------------------0-----|
A|---4h5--4--2---------------------------|
E|---------------------3-----------------|


[Primeira Parte]

    D/B            D4/G            D
E|--------0--------------5--------------0--------3-------0h2--|
B|------3----3---------8----8---------3----3---3----3---------|
G|----2--------------7--------------2--------2--------2-------|  [7x]
D|-----------------5--------------0---------------------------|
A|--2---------------------------------------------------------|
E|------------------------------------------------------------|

    D/B            D4/G            D
E|--------0--------------5--------------0--------3-------2----|
B|------3----3---------8----8---------3----3---3----3---------|
G|----2--------------7--------------2--------2--------2-------|  [1x]
D|-----------------5--------------0---------------------------|
A|--2---------------------------------------------------------|
E|------------------------------------------------------------|


D/B              D4/G
tukhamyeon geuchin maldeullo
         D                   D4   D
nae mame sangcheoreul naenohgo
D/B          D4/G
mianhadan mal hanmadi eobsi
    D               D4   D
tto na hanja wirohago
D/B         D4/G
oneul harudo hoksi
             D                 D4
nal tteonalkka neul buranhae hae
D   D/B       D4/G        D         D4   D
I     just want you to stay
D/B      D4/G
 jeomjeom mudyeojyeo ganeun
      D                 D4   D
neoui geu mupyojeong soge
D/B         D4/G
cheoncheonhi naeryeonohjamyeo
    D              D4   D
geoure soksagigon hae
D/B                     D4/G
nal dangyeonhage saenggakhaneun neojiman
D          D4    D
geuge neodawo geuraedo
D/B  D4/G            D        D4   D
Stay stay stay with me


[Pre-Refrão]

     Bm              A             D4/G
E|--10------10------9-------9---------------------10-------------|
B|------7--------------10----------10--------10------------10----|
G|--------7---------------9---------------12----12------12-------|  [2x]
D|-------------------------------------12------------12----------|
A|------------------0--------------10----------------------------|
E|--7------------------------------------------------------------|

     Bm              A             D4/G
E|--10------10------9-------9------------------------------------|
B|------7--------------10----------10----10------------10--------|
G|--------7---------------9-----------------12------------12-----|  [1x]
D|------------------------------------12-------12----12------12--|
A|------------------0--------------10-------------10-------------|
E|--7------------------------------------------------------------|

     Em                          D4/G
E|-------------------------------5--5--5--5--5-------------------|
B|----------------8--------------8--8--8--8--8-------------------|
G|--------7-----7----7----7------7--7--7--7--7-------------------|  [1x]
D|------9----9---------9---------5--5--5--5--5-------------------|
A|--7---------------------------------------------------4h5--4---|
E|---------------------------------------------------------------|


Bm           A                D4/G
neol darmeun deuthan seulpeun mellodi
Bm         A           D4/G
   ireohge nal ullineunde eh eh
Bm             A           D4/G
   ne hyanggineun dalkomhan felony
    Em            D4/G
neomu mipjiman saranghae


[Refrão]

D/B             D4/G
eoduun bami nal gadugi jeone
D                    D4
nae gyeoteul tteonajima
D     D/B          D4/G
 ajik nal saranghani na mamgwa gatdamyeon
D                D4
oneureun tteonajima
D    D/B    D4/G        D            D4
guji neoyeoyaman haneun iyuneun mutjima
D      D/B     D4/G          D      D4           D
geujeo nae gyeote stay with me (It goes a little something like)
D/B         D4/G           D           D4   D
  Lalalalalala Lalalalalala Lalalalalala
D/B         D4/G           D           D4
  Lalalalalala Lalalalalala Lalalalalala
D      D/B        D4/G        D           D4
jigeum dangjang manheungeol baraneun ge anya
D      D/B     D4/G          D
geujeo nae gyeote stay with me


[Segunda Parte]

...
D|----------|
A|--4h5--4--|  [1x]
E|----------|

    D/B            D4/G            D
E|--------0--------------5--------------0--------3-------0h2--|
B|------3----3---------8----8---------3----3---3----3---------|
G|----2--------------7--------------2--------2--------2-------|  [3x]
D|-----------------5--------------0---------------------------|
A|--2---------------------------------------------------------|
E|------------------------------------------------------------|

    D/B            D4/G            D
E|--------0--------------5--------------0--------3-------2----|
B|------3----3---------8----8---------3----3---3----3---------|
G|----2--------------7--------------2--------2--------2-------|  [1x]
D|-----------------5--------------0---------------------------|
A|--2---------------------------------------------------------|
E|------------------------------------------------------------|


D/B               D4/G
  sasireun nan deo baraneun ge eobseo ije
D                         D4          D
simjangeun ttwigin haneun geonji mugamgakhae geurae
D/B                 D4/G
  saramdeulgwaui eokjiseureon hanmadibodan
D                   D4         D
  neowaui eosaekhan chimmugi charari joha
D/B             D4/G                    D
  So stay geuge eodiga dwaetgeon mariya
                  D4             D
gakkeum eodumi ol ttaemyeon I'll be your fire
D/B                D4/G                         D
  geojit gateun sesang sok yuilhan truth it's you
             D4          D
This a letter from me to you


[Pre-Refrão]

     Bm              A             D4/G
E|--10------10------9-------9---------------------10-------------|
B|------7--------------10----------10--------10------------10----|
G|--------7---------------9---------------12----12------12-------|  [2x]
D|-------------------------------------12------------12----------|
A|------------------0--------------10----------------------------|
E|--7------------------------------------------------------------|

     Bm              A             D4/G
E|--10------10------9-------9------------------------------------|
B|------7--------------10----------10----10------------10--------|
G|--------7---------------9-----------------12------------12-----|  [1x]
D|------------------------------------12-------12----12------12--|
A|------------------0--------------10-------------10-------------|
E|--7------------------------------------------------------------|

     Em                          D4/G
E|-------------------------------5--5--5--5--5-------------------|
B|----------------8--------------8--8--8--8--8-------------------|
G|--------7-----7----7----7------7--7--7--7--7-------------------|  [1x]
D|------9----9---------9---------5--5--5--5--5-------------------|
A|--7---------------------------------------------------4h5--4---|
E|---------------------------------------------------------------|


Bm           A                D4/G
neol darmeun deuthan seulpeun mellodi
Bm         A           D4/G
   ireohge nal ullineunde eh eh
Bm             A           D4/G
   ne hyanggineun dalkomhan felony
    Em            D4/G
neomu mipjiman saranghae


[Refrão]

D/B             D4/G
eoduun bami nal gadugi jeone
D                    D4
nae gyeoteul tteonajima
D     D/B           D4/G
 ajik nal saranghani na mamgwa gatdamyeon
D                D4
oneureun tteonajima
D    D/B    D4/G        D            D4
guji neoyeoyaman haneun iyuneun mutjima
D      D/B     D4/G          D      D4           D
geujeo nae gyeote stay with me (It goes a little something like)
D/B         D4/G           D           D4   D
  Lalalalalala Lalalalalala Lalalalalala
D/B         D4/G           D           D4
  Lalalalalala Lalalalalala Lalalalalala
D      D/B        D4/G        D           D4
jigeum dangjang manheungeol baraneun ge anya
D      D/B     D4/G          D      D4           D
geujeo nae gyeote stay with me  (It goes a little something like)
D/B         D4/G           D           D4   D
  Lalalalalala Lalalalalala Lalalalalala
D/B         D4/G           D           D4
  Lalalalalala Lalalalalala Lalalalalala
D      D/B        D4/G        D           D4
jigeum dangjang manheungeol baraneun ge anya
D      D/B       .
geujeo nae gyeote stay with me
Outros vídeos desta música
    7.870 exibições
      • ½ Tom
      • A
      • Bb
      • B
      • C
      • Db
      • D
      • Eb
      • E
      • F
      • F#
      • G
      • Ab
    • Adicionar à lista

    Afinação da cifra

    Afinador online

      0 comentários

      Ver todos os comentários

      Conseguiu tocar?

      3Tocaram1Ainda não

      Grave um vídeo tocando Stay e nos envie!

      Toque também

      1. Imagem do artista BTSDynamite BTS
      2. Imagem do artista TWICEWhat Is Love? TWICE
      3. Imagem do artista Red VelvetPsycho Red Velvet
      4. Imagem do artista ITZYWannabe ITZY

      Entre para o Cifra Club PRO

      Tenha acesso a benefícios exclusivos no App e no Site

      • Chega de anúncios

      • Badges exclusivas

      • Mais recursos no app do Afinador

      • Atendimento Prioritário

      • Aumente seu limite de lista

      • Ajude a produzir mais conteúdo

      Cifra Club Pro

      Aproveite o Cifra Club com benefícios exclusivos e sem anúncios
      Cifra Club Pro
      Aproveite o Cifra Club com benefícios exclusivos e sem anúncios
      Ops (: Contenido disponible sólo en portugués.
      OK