Cifra Club

Born In A Mourning Hall

Blind Guardian

Cifra: Principal (violão e guitarra)
Selo Cifra Club: esta cifra foi revisada para atender aos critérios oficiais da nossa Equipe de Qualidade.
tom: F#
[Intro:]

eb|----------------------------------------------------------------|
Bb|----------------------------------------------------------------|
Gb|----------------------------------------------------------------|
Db|9---9-7-9---9-7-9---9-7-9---9-7-9---9-7-9---9-7-9---8---7-------|
Ab|7-777-5-7-777-5-7-777-5-7-777-5-7-777-5-7-777-5-7---6---5---5---|
Eb|------------------------------------------------------------3---|
     ..      ..      ..      ..      ..      ..

eb|----------------------------------------------------------------|
Bb|----------------------------------------------------------------|
Gb|----------------------------------------------------------------|
Db|9---9-7-9---9-7-9---9-7-9---9-7-9---9-7-9---9-7-----------------|
Ab|7-777-5-7-777-5-7-777-5-7-777-5-7-777-5-7-777-5-5-------7-------|
Eb|------------------------------------------------3-------5-------|
     ..      ..      ..      ..      ..      ..

Repeat Once, then:

eb|----------------|-------------|---------|--------------------|-------|---------------|----------------|----------------|
Bb|----------------|-------------|---------|10-9h10p7-----------|-------|---------------|----------------|----------------|
Gb|--------------9-|-----9-7-6---|7-9------|-----------7-9-9b11-|9------|---------------|----------------|----------------|
Db|--------6-7-9---|-------------|----7----|--------------------|---7-9-|9b11----11-9-7-|9---------------|6-7-9-7-6h7p6---|
Ab|7---------------|-------------|---------|--------------------|-------|---------------|----------------|--------------9-|
Eb|----------------|-------------|---------|--------------------|-------|---------------|----------------|----------------|
  |                                                                                                                       |
eb|----------------|-------------|---------|--------------------|-------|---------------|----------------|----------------|
Bb|----------------|-------------|---------|--------------------|-------|---------------|----------------|----------------|
Gb|----------------|-------------|---------|--------------------|-------|---------------|----------------|----------------|
Db|----------------|-------------|7--------|--------------------|-------|---------------|----------------|----------------|
Ab|2---------------|-------------|5--------|--------------------|7------|---------------|----2-------2---|----2-------2---|
Eb|0---------------|-------------|---------|--------------------|5------|---------------|0-0-0-0-0-0-0-0-|0-0-0-0-0-0-0-0-|
                                                                                         . .   . . .   .  . .   . . .   .

eb|----------------|-----------------|---------|--------------------|---------|-----------------|----------------|----------------|
Bb|----------------|-----------------|---------|10-9h10p7-----------|---10-12-|12FB---PFB12R-10-|12--------------|----------------|
Gb|--------------9-|-----9-7h9p6-----|7-9------|-----------7-9-9FB--|9~-------|-----------------|----------------|----------------|
Db|--------6-7-9---|-----------------|----7----|--------------------|---------|-----------------|----------------|----------------|
Ab|7---------------|-----------------|---------|--------------------|---------|-----------------|----------------|----------------|
Eb|----------------|-----------------|---------|--------------------|---------|-----------------|----------------|----------------|
  |                                                                  A.H..........................                                |
eb|----------------|-----------------|---------|--------------------|---------|-----------------|----------------|----------------|
Bb|----------------|-----------------|---------|--------------------|---------|-----------------|----------------|----------------|
Gb|----------------|-----------------|---------|--------------------|---------|-----------------|----------------|----------------|
Db|----------------|-----------------|7--------|--------------------|---------|-----------------|----------------|----------------|
Ab|2---------------|-----------------|5--------|--------------------|7--------|-----------------|----2-------2---|----2-------2---|
Eb|0---------------|-----------------|---------|--------------------|5--------|-----------------|0-0-0-0-0-0-0-0-|0-0-0-0-0-0-0-0-|
                                                                                                 . .   . . .   .  . .   . . .   .

[Verse 1:]

eb|----------------------------|----------------------------|------------------------|--------------------|
Bb|----------------------------|----------------------------|------------------------|--------------------|
Gb|----------------------------|----------------------------|------------------------|--------------------|
Db|---4s7----7s6----4s7----7s9-|---9s7----7s6----6S3----3---|------------------------|--------------------|
Ab|---2s5----5s4----2s5----5s7-|---7s5----5s4----4S1----1---|5---7-------------------|5---7-----------2---|
Eb|00-----00-----00-----00-----|00-----00-----00-----00-----|3---5---0-0-00000-0-0000|3---5---0-0-00000---|
   ..     ..     ..     ..      ..     ..     ..     ..              . . ..... . ....         . . ....

In fact it was close to a real fallout everything's under control the speaker said with a serious smile
behind his mask he knew the truth


eb|----------------------------|----------------------------|------------------------|--------------------|
Bb|----------------------------|----------------------------|------------------------|--------------------|
Gb|----------------------------|----------------------------|------------------------|--------------------|
Db|---4s7----7s6----4s7----7s9-|---9s7----7s6----5S7----3---|------------------------|--------------------|
Ab|---2s5----5s4----2s5----5s7-|---7s5----5s4----3S5----1---|5---7-------------------|5---7-----------2---|
Eb|00-----00-----00-----00-----|00-----00-----00-----00-----|3---5---0-0-00000-0-0000|3---5---0-0-00000---|
   ..     ..     ..     ..      ..     ..     ..     ..              . . ..... . ....         . . ....

I'll bring the new age of better ways the TV preacher said just pay today Pay today


eb|-----------------|-----------------|-----------------|-----------------|
Bb|-----------------|-----------------|-----------------|-----------------|
Gb|-----------------|-----------------|-----------------|-----------------|
Db|-----------------|-----------------|-----------------|-----------------|
Ab|2---2---2------3-|2---2---2------3-|2---2---2------3-|2---2---2------3-|
Eb|0---0---0------1-|0---0---0------1-|0---0---0------1-|0---0---0------1-|

       Worlds dressed in black on earths judgementsday


eb|----------------|----------------|---------------|----------------|
Bb|----------------|----------------|---------------|----------------|
Gb|----------------|----------------|---------------|----------------| Repeat once
Db|----------------|----------------|---------------|----------------|
Ab|7777777777777777|7777666655554444|333333333333333|5-------7-------|
Eb|----------------|----------------|---------------|3-------5-------|
   ................ ................ ............... 

and I? I know it cant go on forbidden signs increase
I'm sitting still at home and watching


[Chorus:]

eb|----------------|----------------|---------------|----------------|
Bb|----------------|----------------|---------------|----------------|
Gb|----------------|----------------|---------------|----------------|
Db|----------------|5---------------|2--------------|3-------4-------|
Ab|2---------------|3---------------|0--------------|1-------2-------|
Eb|0---------------|----------------|---------------|----------------|

Born in a mourning hall


eb|----------------|----------------|---------------|----------------|
Bb|----------------|----------------|---------------|----------------|
Gb|----------------|----------------|---------------|----------------|
Db|----------------|5---------------|---------------|4---------------|
Ab|2---------------|3---------------|5--------------|2---------------|
Eb|0---------------|----------------|3--------------|----------------|

Pale clouds feared the unborn child then it grow up with growing plans of sucide


eb|----------------|----------------|---------------|----------------|
Bb|----------------|----------------|---------------|----------------|
Gb|----------------|----------------|---------------|----------------|
Db|----------------|5---------------|2--------------|3-------4-------|
Ab|2---------------|3---------------|0--------------|1-------2-------|
Eb|0---------------|----------------|---------------|----------------|

Born in a mourning hall


eb|----------------|----------------|---------------|----------------|
Bb|----------------|----------------|---------------|----------------|
Gb|----------------|----------------|---------------|----------------|
Db|----------------|5---------------|---------------|4---------------|
Ab|2---------------|3---------------|5--------------|2---------------|
Eb|0---------------|----------------|3--------------|----------------|

shadows left the fear inside that Peter Pan will never reach


eb|----------------|----------------|----------------|----------------|
Bb|----------------|----------------|----------------|----------------|
Gb|----------------|----------------|----------------|----------------|
Db|----------------|3-3-3-4-4-4-7-7-|----------------|3-3-3-4-4-4-7-7-|
Ab|2-2-2-2-2-2-2-2-|1-1-1-2-2-2-5-5-|2-2-2-2-2-2-2-2-|1-1-1-2-2-2-5-5-|
Eb|0-0-0-0-0-0-0-0-|----------------|0-0-0-0-0-0-0-0-|----------------|
   . . . . . . . .  . . . . . . . .  . . . . . . . .  . . . . . . . .

the other side

[Short lead:]

Not yet transcraibed


eb|----------------------------------------------------------------|
Bb|----------------------------------------------------------------|
Gb|----------------------------------------------------------------|
Db|9---9-7-9---9-7-9---9-7-9---9-7-9---9-7-9---9-7-9---8---7-------|
Ab|7-777-5-7-777-5-7-777-5-7-777-5-7-777-5-7-777-5-7---6---5---5---|
Eb|------------------------------------------------------------3---|
     ..      ..      ..      ..      ..      ..

eb|----------------------------------------------------------------|
Bb|----------------------------------------------------------------|
Gb|----------------------------------------------------------------|
Db|9---9-7-9---9-7-9---9-7-9---9-7-9---9-7-9---9-7-----------------|
Ab|7-777-5-7-777-5-7-777-5-7-777-5-7-777-5-7-777-5-5-------7-------|
Eb|------------------------------------------------3-------5-------|
     ..      ..      ..      ..      ..      ..


VERSE 2:

eb|----------------|---------------|----------------|---------------|
Bb|----------------|---------------|----------------|---------------|
Gb|----------------|---------------|----------------|---------------| Repeat once
Db|4---------------|---------------|4---------------|---------------|
Ab|2---------------|3-------4---7--|2---------------|3-------4---7--|
Eb|----------------|1-------2---5--|----------------|1-------2---5--|

Abd it's frightening and exciting to sit at home and watch the burning fields get


Keyboard-section:
D#      (Authors note: Remember the guitar is halfstep downed!!!)
hypnotized by the TV-snake



eb|----------------|---------------|----------------|---------------|
Bb|----------------|---------------|----------------|---------------|
Gb|----------------|---------------|----------------|---------------|
Db|5---------------|5---4-2---4----|5---------------|5---4-2---4----|
Ab|3-33333333333333|3-332-0-002----|3-33333333333333|3-332-0-002----|
Eb|----------------|---------------|----------------|---------------|
     ..............   ..    ..        ..............   ..    ..

obey and work hard and feel no anger just


Keyboard-section:
D#
sympathy for the higher class


eb|----------------|---------------|----------------|---------------|
Bb|----------------|---------------|----------------|---------------|
Gb|----------------|---------------|----------------|---------------|
Db|5---------------|5---4-2---4----|5---------------|4---4-2---4----|
Ab|3-33333333333333|3-332-0-002----|3-33333333333333|2-222-0-002----|
Eb|----------------|---------------|----------------|---------------|
     ..............   ..    ..        ..............   ..    ..

Theres no chance in changing things coz I am


[Chorus:]

eb|----------------|----------------|---------------|----------------|
Bb|----------------|----------------|---------------|----------------|
Gb|----------------|----------------|---------------|----------------|
Db|----------------|5---------------|2--------------|3-------4-------|
Ab|2---------------|3---------------|0--------------|1-------2-------|
Eb|0---------------|----------------|---------------|----------------|

Born in a mourning hall


eb|----------------|----------------|---------------|----------------|
Bb|----------------|----------------|---------------|----------------|
Gb|----------------|----------------|---------------|----------------|
Db|----------------|5---------------|---------------|4---------------|
Ab|2---------------|3---------------|5--------------|2---------------|
Eb|0---------------|----------------|3--------------|----------------|

silent cries ran out when the cradle breaks broken dreams where unheard on the other side


eb|----------------|----------------|---------------|----------------|
Bb|----------------|----------------|---------------|----------------|
Gb|----------------|----------------|---------------|----------------|
Db|----------------|5---------------|2--------------|3-------4-------|
Ab|2---------------|3---------------|0--------------|1-------2-------|
Eb|0---------------|----------------|---------------|----------------|

Born in a mourning hall


eb|----------------|----------------|---------------|----------------|
Bb|----------------|----------------|---------------|----------------|
Gb|----------------|----------------|---------------|----------------|
Db|----------------|5---------------|---------------|4---------------|
Ab|2---------------|3---------------|5--------------|2---------------|
Eb|0---------------|----------------|3--------------|----------------|

shadows left the fear in the new born child that Peter Pan will never reach


eb|----------------|----------------|----------------|----------------|
Bb|----------------|----------------|----------------|----------------|
Gb|----------------|----------------|----------------|----------------|
Db|----------------|3-3-3-4-4-4-7-7-|----------------|3-3-3-4-4-4-7-7-|
Ab|2-2-2-2-2-2-2-2-|1-1-1-2-2-2-5-5-|2-2-2-2-2-2-2-2-|1-1-1-2-2-2-5-5-|
Eb|0-0-0-0-0-0-0-0-|----------------|0-0-0-0-0-0-0-0-|----------------|
   . . . . . . . .  . . . . . . . .  . . . . . . . .  . . . . . . . .

the other side


[Solo:]

e||----------------------------|--------------------------|
B||----------------------------|--------------------------|
G||----------------------------|--------------------------|
D||---------7----------9-8-7---|---------7----------9-8---|
A||7---10-7---10-7-6-----------|7---10-7---10-7-6---------|
E||----------------------------|--------------------------|



e||-----------------------------------------------
B||-----------------------------------------------
G||-----------------------------------------------
D||-----------------------------------------------
A||-----------------------------------------------
E||-----------------------------------------------




e||----------------|-------------|------------------------|12-10h12p10---15---|
B||----------------|---------8---|----99991010101012121212|-----------12------|
G||----------------|9-7h9p7------|9-----------------------|-------------------|
D||----666677779999|-------9-----|------------------------|-------------------|
A||7---------------|-------------|------------------------|-------------------|
E||----------------|-------------|------------------------|-------------------|
   .   ............               .   ....................


                                                                                              A.H
e||---------------------------|---------------------|---------------------------|-------------9HB-----|
B||12-8h12p8------------------|12-8h12p8------------|12-8h12p8------------------|12-8h12p8------------|
G||---------9-------------9---|---------9---11------|---------9-------------9---|---------9-----------|
D||-------------11---12-------|---------------------|-------------11---12-------|---------------------|
A||---------------------------|---------------------|---------------------------|---------------------|
E||---------------------------|---------------------|---------------------------|---------------------|
Outros vídeos desta música
    4.703 exibições
      • ½ Tom
      • A
      • Bb
      • B
      • C
      • Db
      • D
      • Eb
      • E
      • F
      • F#
      • G
      • Ab
    • Adicionar à lista

    Afinação da cifra

    Afinador online

      0 comentários

      Ver todos os comentários

      Entre para o Cifra Club PRO

      Tenha acesso a benefícios exclusivos no App e no Site

      • Chega de anúncios

      • Mais recursos no app do Afinador

      • Atendimento Prioritário

      • Aumente seu limite de lista

      • Ajude a produzir mais conteúdo

      Cifra Club Pro

      Aproveite o Cifra Club com benefícios exclusivos e sem anúncios
      Cifra Club Pro
      Aproveite o Cifra Club com benefícios exclusivos e sem anúncios
      OK