Cifra Club

Aprenda

The Bard's Song (In The Forest)

Blind Guardian

Cifra: Principal (violão e guitarra)
Já pensou em usar uma coleção de roupas do Cifra Club? Responda as perguntas abaixo e nos ajude nessa missão! →
tom: C
Intro:                                      1ª vez:            2ª vez:
D|--0----------|------------|----------|   B|-------------|   B|---------|
A|-----3--1--0-|-0--1--0----|-0--------|   A|-1--3--1-0h1-|   A|---------|
F|-------------|----------0-|----2--0--|   F|-------------|   F|--2------|
C|-------------|------------|----------|   C|-------------|   C|---------|
G|--0----------|------------|----------|   G|-0-----------|   G|--0------|
D|-------------|-3----------|-0--------|   D|-------------|   D|---------|

                                   1ª vez:                           2ª vez:
D|-12--10-------|-------------|   D|-----------|----10----------|   D|---------------|
A|--------13-12-|-12-13-12----|   A|-12-10-----|-13----13-12-13-|   A|-12--10--------|
F|--------------|----------12-|   F|--------12-|----------------|   F|--------12-----|
C|--------------|-------------|   C|-----------|----------------|   C|---------------|
G|--------------|-------------|   G|-----------|----------------|   G|---------------|
D|--------------|-------------|   D|-----------|----------------|   D|---------------|
 
D|-0------------|-------------|   D|-----------|----------------|   D|---------------|
A|------3--1--0-|-0--1--0-----|   A|-0---------|-1---3--1--0--1-|   A|-0-------------|
F|--------------|-----------0-|   F|-----2---0-|----------------|   F|------2----0---|
C|--------------|-------------|   C|-----------|----------------|   C|---------------|
G|-0------------|-------------|   G|-----------|-0--------------|   G|---------------|
D|--------------|-3-----------|   D|-0---------|----------------|   D|-0-------------|

Verso 1:

D|-0----------|-----|-----------------------|------------|
A|------3---1-|-3---|-0---------------------|------------|
F|------------|-----|-----------2------0----|-2----------|
C|------------|-----|-----------------------|------------|
G|-0----------|-----|-----------------------|-0----------|
D|------------|-3---|-0---------------------|------------|
    Now you all  know  the bards  and   their  songs.  When

D|-0---------------|-----------------|------------------|-----------------|
A|---1---3-----1---|-0-----1-----3---|-0----------------|-1-----0-----1---|
F|-----2---2-----2-|---0-----0-----0-|---0----2-----0---|---2-----2-----2-|
C|-----------2-----|-----0-----0-----|-----2----2-----2-|-----2-----2-----|
G|-0---------------|-----------------|------------2-----|-0---------------|
D|-----------------|-3---------------|-0----------------|-----------------|
    Hours have  gone  by,               I     close  my   eyes.        In a

D|-12~-------------|-----------------|------------------|----------------------|
A|-------15~---13~-|-12~---13~---12~-|------------------|-12-12h13p12----------|
F|-----------------|-----------------|-12~---14~---12~--|-------------14-12/14~|
C|-----------------|-----------------|------------------|----------------------|
G|-----------------|-----------------|------------------|----------------------|
D|-----------------|-----------------|------------------|----------------------|
 |                 |                 |                  |                      |
D|-0---------------|-----------------|------------------|----------------------|
A|---1---3-----1---|-0-----1-----3---|-0----------------|-1-----0-----1--------|
F|-----2---2-----2-|---0-----0-----0-|---0----2-----0---|---2-----2-----2------|
C|-----------2-----|-----0-----0-----|-----2----2-----2-|-----2-----2----------|
G|-0---------------|-----------------|------------2-----|-0--------------------|
D|-----------------|-3---------------|-0----------------|----------------------|
   world far  away               we    may    meet  again,                   but

D|-7~--------------|---------------------|-------------------|-----------------|
A|-------10~---8~--|-7~----8~----7~------|-------------------|-8p7-------------|
F|-----------------|---------------------|-7~----9~----7~----|-----9~----------|
C|-----------------|---------------------|-------------------|-----------------|
G|-----------------|---------------------|-------------------|-----------------|
D|-----------------|---------------------|-------------------|-----------------|

D|-0---------------|---------------------|-------------------|---1-------------|
A|---1---3-----1---|-0-----1-----3-------|-0-------1-------3-|-----3-----------|
F|-----2---2-----2-|---0-----0-----0-----|---0-------0-------|-------2------2--|
C|-----------2-----|-----0-----0---------|-----2-------2-----|-0---------------|
G|-0---------------|---------------------|-------------------|-----------------|
D|-----------------|-3-------------------|-0-----------------|-----------------|
   now   hear  my    song       about the  dawn    of      the   night.     Let's

D|--------|-------|--------|-------|---------|---------|------|-------|
A|--1-----|-0-----|--------|-0-----|-1-----1-|-0-----0-|------|-0-----|
F|------0-|-----0-|-2------|-----0-|---0-----|---0-----|-2----|-----0-|
C|--------|-------|-----2--|-------|-----2---|-----2---|----2-|-------|
G|--3-----|-2-----|-0------|-2-----|-3-------|-2-------|-0----|-2-----|
D|--------|-------|--------|-------|---------|---------|------|-------|
    sing    the     bard's   song                                   To -

Refrão 1:
D|---------|-0-------|-1---0----|-0------|-1---0----|-0------|-1---0-----|
A|-3-----3-|----1----|--------3-|----1---|--------3-|----1---|---------3-|
F|----2----|------2--|----------|------2-|----------|------2-|-----------|
C|-0-------|---------|-0--------|--------|-0--------|--------|-0---------|
G|---------|-0-------|----------|-0------|----------|-0------|-----------|
D|---------|---------|----------|--------|----------|--------|-----------|
   -mor  -   row will take us  away,       far   from home     no one will 

D|----------|--------|-----------|-----------|-------|-------|--------|--------|
A|-6-6---8--|-8---3--|-4---------|-----------|-------|-------|--------|--------|
F|-5-5---7--|-7---2--|---7-------|-----------|-------|-----4-|-----5--|--------|
C|-3-3---5--|-5---0--|-----7-----|-----------|-------|---5---|---7----|--------|
G|----------|--------|-----------|-8------8--|-/10---|-5-----|-7------|-5------|
D|----------|--------|-----------|-----------|-------|-------|--------|--------|
  ever  know our names, ***   but the bard's song will Tomor  -   row will take it
                                                  remain.
D|--------|----------|-------|----------|-------|-------|----------|----------|
A|--------|----------|-------|----------|---6---|-------|----------|----------|
F|------5-|----------|-----5-|----------|-------|---5---|----------|----------|
C|---7----|----------|---7---|----------|-------|-7-----|----------|----------|
G|-7------|-5--------|-7-----|-5--------|-8---8-|-------|-7---5--7-|-3--5--2--|
D|--------|----------|-------|----------|-------|-------|----------|----------|
    away,the fear of today      it will be gone           due to our magic songs

Solo:

   ^              ^    ^     ^       ^       ^   2x
D|--------------|-----------------|--------------|| 
A|-13p12p10-----|-10--------------|--------------||  
F|*----------12-|----9-10----9~---|--9~---9--11-*||   
C|*-------------|---------12------|-------------*|| 
G|--------------|-----------------|--------------||
D|--------------|-----------------|--------------||

    ^                  ^                ^
D|-----------------|-----------------|-----------------|
A|-----------------|-----------------|-----------------|
F|-----------------|--9~-------------|-----------------|
C|-7~----9-----10--|-------10----9---|-------------14~-|
G|-----------------|-----------------|-8-----10--------|
D|-----------------|-----------------|-----------------|
 
D|-----------------|-0---------------|-----------------|
A|-0-----1-----3---|---0---3-----1---|-1-----3-----5---|
F|---2-----2-----2-|-----0---0-----0-|---2-----2-----4-|
C|-----2-----2-----|-----------2-----|-----3-----1-----|
G|-0---------------|-----------------|-----------------|
D|-----------------|-0---------------|-1---------------|

    ^      ^        ^          ^                ^     ^        ^
D|-------------------------|-----------------|------------------------|
A|-------------------------|-----------------|------------------------|
F|-------------------------|-----------------|-------12-10-10h12p10-7-|
C|-12~-15-14-12-10h12p10-9-|-10-----12---14--|-12~--------------------|
G|-------------------------|-----------------|------------------------|
D|-------------------------|-----------------|------------------------|

D|-------------------------|-----------------|-0----------------------|
A|-3------5--------3-------|-0-----1-----3---|---0---3-------1--------|
F|---4-------4-----------4-|---2-----2-----2-|-----0----0-----------0-|
C|-----5--------3----------|-----2-----2-----|-------------2----------|
G|-------------------------|-0---------------|------------------------|
D|-3-----------------------|-----------------|-0----------------------|

    ^          ^
D|----------|-------||
A|----------|-------||
F|-------14-|-12~---||
C|-12-14----|-------||
G|----------|-------||
D|----------|-------||

D|----------|-------||
A|-1------5-|-3-----||
F|-2--------|-4-----||
C|-3--------|-5-----||
G|-3--------|-5-----||
D|-1------3-|-3-----||
                 There's ....

Verso 2 - Igual ao verso 1

Refrão 2:

 The beginning is the same as in Chorus 1
 End from "...afraid" is changed:

D|-...--|------------|-------|----------|---------|--------|--------|
A|-...--|------------|-------|----------|-4-------|--------|--------|
F|-...--|------------|-------|--------7-|---7-----|--------|--------|
C|-...--|------------|-------|-----7----|-------7-|--------|--------|
G|-...--|-8---8------|-/10---|---5------|---------|-8----8-|--/10---|
D|-...--|------------|-------|----------|---------|--------|--------|
       be afraid in the dark and cold,       but the bard songs will re-

Coda:

         C       G       Am               C       G        Am
D|-------|-------|-------|--------|-------|-------|--------|--------|
A|-------|-------|-------|-1------|-------|-------|------1-|-0h1----|
F|-----5-|-----4-|-----2-|---2----|-----5-|-----4-|----2---|----2---|
C|---5---|---5---|---2---|-----2--|---5---|---5---|-0h2----|------2-|
G|-3-----|-5-----|-0-----|--------|-3-----|-5-----|--------|--------|
D|-------|-------|-------|--------|-------|-------|--------|--------|
   -ma   -  a   -   ain,        they all     will     remain

         C       G            Am                   C       G       Am
D|-------|------------|-------|------------|-------|-------|--------|--------|
A|-------|------------|-------|-1----------|-------|-------|------1-|-0h1----|
F|-----5-|----------4-|-----2-|----2-------|-----5-|-----4-|----2---|----2---|
C|---5---|------5-----|---2---|------2-----|---5---|---5---|-0h2----|------2-|
G|-3-----|-5----------|-0-----|------------|-3-----|-5-----|--------|--------|
D|-------|------------|-------|------------|-------|-------|--------|--------|
    In my   thoughts and in my dreams they're always  in my   mind         These

         C        G       Am                  C       G       Am
D|--------|-------|-----------|-------|-------|-------|---------|--------|
A|--------|-------|-----------|-1-----|-------|-------|-------1-|-0h1----|
F|-----5--|-----4-|--------2--|---2---|-----5-|-----4-|----2----|----2---|
C|---5----|---5---|-----2-----|-----2-|---5---|---5---|-0h2-----|------2-|
G|-3------|-5-----|--0--------|-------|-3-----|-5-----|---------|--------|
D|--------|-------|-----------|-------|-------|-------|---------|--------|
    songs of hobbits, dwarves &  men, &  elves   come   close your eyes.You can

        C       G       Em
D|-------|-------|-------|-----0-|
A|-------|-------|-------|---0---|
F|-----5-|-----4-|-------|-0-----|
C|---5---|---5---|-----2-|-------|
G|-3-----|-5-----|---2---|-------|
D|-------|-------|-0-----|-------|
    see     them    too...
Composição de André Olbrich / Hansi Kürsch
195.970 exibições
  • Simplificar cifra
    • ½ Tom
    • A
    • Bb
    • B
    • C
    • Db
    • D
    • Eb
    • E
    • F
    • F#
    • G
    • Ab
  • Adicionar à lista

    0 comentários

    Ver todos os comentários

    Conseguiu tocar?

    20 Tocaram 7 Ainda não

    Grave um vídeo tocando The Bard's Song (In The Forest) e nos envie!

    00:00 / 00:00
    Outros vídeos desta música
    Repetir Qualidade Automático
    Outros vídeos desta música
    00:00 / 00:00
    Automático

    Cifra Club Pro

    Aproveite o Cifra Club com benefícios exclusivos e sem anúncios
    Cifra Club Pro
    Aproveite o Cifra Club com benefícios exclusivos e sem anúncios
    OK