Cifra Club

Blue

Blue

Cifra: Principal (violão e guitarra)
Selo Cifra Club: esta cifra foi revisada para atender aos critérios oficiais da nossa Equipe de Qualidade.
tom: D
e|--------------0-2-0-3--2-0----------------0-2-3-2--3/5-5--3-3--2-3---3-2-0------------------------0-------------
B|-----0-2-3-------------------3-2----2-3-------------------------------------------3-2-0-------0-2-3---------------
G|--2--------------------------------------------------------------------------------------------2------------------------
D|--------------------------------------------------------------------------------------------------------------------------
A|---------------------------------------------------------------------------------------------------------------------------
E|---------------------------------------------------------------------------------------------------------------------------

e|----7--7--7---5---3--3----2--2---0---2---3-2-0-----------------------0----------------------------------------------
B|---8--8---8--7---5---5---3--3---2---3------------3-2-0------0-2-3--------------------------------------------------
G|---------------------------------------------------------------2----------------------------------------------------------
D|---------------------------------------------------------------------------------------------------------------------------
A|--------------------------------------------------------------------------------------------------------------------------
E|--------------------------------------------------------------------------------------------------------------------------

e|----7--7--7---5---3--3----2--2---0---2---3-2-0----------------2------------------------------------------------------
B|---8--8---8--7---5---5---3--3---2---3-------------3-2-0------3------------------------------------------------------
G|-------------------------------------------------------------------2------------------------------------------------------
D|--------------------------------------------------------------------------------------------------------------------------
A|--------------------------------------------------------------------------------------------------------------------------
E|--------------------------------------------------------------------------------------------------------------------------

Outros vídeos desta música
    2.304 exibições
      • ½ Tom
      • A
      • Bb
      • B
      • C
      • Db
      • D
      • Eb
      • E
      • F
      • F#
      • G
      • Ab
    • Adicionar à lista

    Afinação da cifra

    Afinador online

      0 comentários

      Ver todos os comentários

      Entre para o Cifra Club PRO

      Tenha acesso a benefícios exclusivos no App e no Site

      • Chega de anúncios

      • Mais recursos no app do Afinador

      • Atendimento Prioritário

      • Aumente seu limite de lista

      • Ajude a produzir mais conteúdo

      Cifra Club Pro

      Aproveite o Cifra Club com benefícios exclusivos e sem anúncios
      Cifra Club Pro
      Aproveite o Cifra Club com benefícios exclusivos e sem anúncios
      OK