Cifra Club

Lanterna Dos Afogados

Cássia Eller

Cifra: Principal (violão e guitarra)
Selo Cifra Club: esta cifra foi revisada para atender aos critérios oficiais da nossa Equipe de Qualidade.
tom: E
[Intro] E  F#  D#m  G#m

     E
Quando tá escuro
          F#
E ninguém te ouve
           D#m
Quando chega a noite
        G#m
E você pode chorar
        E
Ha uma luz no túnel
            F#
Dos desesperados
       D#m
Ha um cais de porto
             G#m
Pra quem precisa chegar

          E
Eu to na lanterna dos
      F#
Afogados
       D#m
Eu to te esperando
       G#m             A
Vê se não vai demorar

        E
Uma noite longa
        F#
P'ruma vida curta
        D#m
Mas já não me importa
       G#m
Basta poder te ajudar
       E
E são tantas marcas
          F#
Que já fazem parte
            D#m
Do que soou agora
               G#m
Mas ainda sei me virar

          E
Eu to na lanterna dos
      F#
Afogados
       D#m
Eu to te esperando
       G#m             A
Vê se não vai demorar

[Solo] A  E  F#m  D#m  G#m
       E  F#m  D#m  G#m

[Tab - Solo]

E|----------------------------------------------------------|------|
B|----------------------------------------------------------------|
G|8*----------------------9---------------------------------------|
D|----11p9h11-------8h9h11----------------------------------------|
A|-----------9~---------------------------------------------------|
E|----------------------------------------------------------|------|
   Pm
E|----------------------------------------------------------|------|
B|---------------------------------------------------------16-----|
G|---------------------------------------------13-14-16/18--------|
D|---------------------------13-14-16-13-14-16--------------------|
A|---------12-14-16-12-14-16--------------------------------------|
E|12-14-16--------------------------------------------------------|

E|----------------------------------------------------------|------|
B|------------------19b21r19-16h19p16~-14h16p14~--12h14p12~-------|
G|18b20r18p16-18-16-----------------------------------------------|
D|----------------------------------------------------------------|
A|----------------------------------------------------------------|
E|----------------------------------------------------------|------|

E|----------------------------------------------------------|------|
B|-9h12p9~-7h9p7~-------------------------------------------------|
G|----------------8/6p4---6pr| ebend---------------------------6-4|
D|----------------------6----------6---6-4----------6---4--6---6--|
A|------------------------------------------6-4---6---6-----------|
E|----------------------------------------------7-----------------|

E|----------------7-------------------------7-9| B11R9-7--9-7-----|
B|----7----------------------7----------7-9-----------------------|
G|6/8---8/6-4-6/8--8/6-4-6/8--8/6-4-6/8---------------------------|
D|----------------------------------------------------------------|
A|----------------------------------------------------------------|
E|----------------------------------------------------------|------|

E|----------------------------------------------------------|------|
B|9--7-9/11-12-7/9-7| H9------------------------------------------|
G|----------------------------------------------------------------|
D|----------------------------------------------------------------|
A|----------------------------------------------------------------|
E|----------------------------------------------------------|------|

          E
Eu to na lanterna dos
      F#
Afogados
       D#m
Eu to te esperando
       G#m           A
Vê se não vai demorar

[Solo - Final]

E|----------------------------------------------------------|
B|12H14H16/17P16P14--19-16~~-----12H14H16/17P16P14---21-17~~
E|----------------------------------------------------------||
B|----------------------------------------------------------|
G|----------------------------------------------------------|
D|----------------------------------------------------------|

Uma noite longa
        F#
P'ruma vida curta
        D#m
Mas já não me importa
       G#m
Basta poder te ajudar
       E
E são tantas marcas
          F#
Que já fazem parte
            D#m
Do que soou agora
               G#m
Mas ainda sei me virar
          E
Eu to na lanterna dos
      F#
Afogados
       D#m
Eu to te esperando
       G#m            A
Vê se não vai demorar
Outros vídeos desta música
    691.406 exibições
      • ½ Tom
      • A
      • Bb
      • B
      • C
      • Db
      • D
      • Eb
      • E
      • F
      • F#
      • G
      • Ab
    • Adicionar à lista

    Afinação da cifra

    Afinador online

      0 comentários

      Ver todos os comentários

      Entre para o Cifra Club PRO

      Tenha acesso a benefícios exclusivos no App e no Site

      • Chega de anúncios

      • Badges exclusivas

      • Mais recursos no app do Afinador

      • Atendimento Prioritário

      • Aumente seu limite de lista

      • Ajude a produzir mais conteúdo

      Cifra Club Pro

      Aproveite o Cifra Club com benefícios exclusivos e sem anúncios
      Cifra Club Pro
      Aproveite o Cifra Club com benefícios exclusivos e sem anúncios
      OK