Cifra Club

Aprenda

Maracatu de Tiro Certeiro

Chico Science

Cifra: Principal (violão e guitarra)
Já pensou em usar uma coleção de roupas do Cifra Club? Responda as perguntas abaixo e nos ajude nessa missão! →
tom: A
(intro)

Urubuservando, a situação:
uma carraspana, na putrefação;
a lama chega até o meio da canela;
o mangue tá afundando e não nos dá mais trela!

E|----------|-----------------------------------------------|
B|----------|-------------5-3-------------------------------|
G|-2-2-2-2--|---------2-4-----4-2-4--4-2--------------------|
D|-2-2-2-2--|---0-2-4--------------------4-2-4-2-4-2--------|
A|-0-0-0-0--|-2--------------------------------------4-2-4--|
E|----------|-----------------------------------------------|

Tiro certeiro, é de tiro certeiro...

E|-7-7---------------7-7-10-7-------------------|
B|-7-7-7p9-7p9-9-7---7-7-10-7-------------------|
G|-----7p9-7p9-9-7-9----------------------------|
D|-----------------9----------9-9-7-7-----------|
A|------------------------------------9-9-7-7---|
E|----------------------------------------------|

Ê, foi certeiro, Oh se foi..
Ahhh...

E|-----------|
B|-----------|
G|-----------| (3x)
D|-11-7-9-5--|
A|-9--5-7-3--|
E|-----------|

E|-----------|
B|-----------|
G|-----------| (3x)
D|-11-7-9-11-|
A|-9--5-7-9--|
E|-----------|

Mas o sol é de aço, a bala escaldante...

E|-7-7---------------7-7-10-7-------------------|
B|-7-7-7p9-7p9-9-7---7-7-10-7-------------------|
G|-----7p9-7p9-9-7-9----------------------------|
D|-----------------9----------9-9-7-7-----------|
A|------------------------------------9-9-7-7---|
E|----------------------------------------------|

As balas já não mais atendem ao gatilho,
já não mais atendem ao gatilho,
já não mais atendem...

E|-10^-----------|
B|---------------|
G|---------------|

(solo)
E|-----------------------------------------------------------------------10-------------|
B|-12-12---10--10-12-12-12-10---------------------------------------12-10--12^----------|
G|-------11--11--------------11-9-7-7-9-9-7-----7-9-9-9-7-----7-9-7---------------------|
D|------------------------------------------9-9-----------9-9---------------------------|
A|--------------------------------------------------------------------------------------|
E|--------------------------------------------------------------------------------------|

Seus olhos estão em brasa
Fumaçando! Fumaçando! Fumaça!
Ah, ah, ah, ah, ah, ah, Êêê....
Composição de Chico Science / Jorge du Peixe
Colaboração e revisão:
  • Murilo Mesquita
5.199 exibições
    • ½ Tom
    • A
    • Bb
    • B
    • C
    • Db
    • D
    • Eb
    • E
    • F
    • F#
    • G
    • Ab
  • Adicionar à lista

    0 comentários

    Ver todos os comentários

    Conseguiu tocar?

    0 Tocaram 0 Ainda não

    Grave um vídeo tocando Maracatu de Tiro Certeiro e nos envie!

    00:00 / 00:00
    Outros vídeos desta música
    Repetir Qualidade Automático
    Outros vídeos desta música
    00:00 / 00:00
    Automático

    Cifra Club Pro

    Aproveite o Cifra Club com benefícios exclusivos e sem anúncios
    Cifra Club Pro
    Aproveite o Cifra Club com benefícios exclusivos e sem anúncios
    OK