Cifra Club

Beautiful

Christina Aguilera

Cifra: Principal
exibições 185.069
Tom: G#
Intro:

   D#                 D#/C#           Cm             B
|-------------------------------4-3------------------------------|
|--------------9-8------------------------------3-4--------------|
|-9---9---9---------6---6---6-------5---5---5-------4---4---4----|
|-9---9---9---------6---6---6-------5---5---5-------4---4---4----|
|---6---6---6--6-6----4---4---4-4-4---3---3---3-3-3---2---2---2--|
|----------------------------------------------------------------|


Don't look at me
Ooh

D#             D#/C#                 Cm              B
Every day is so wonderful, then suddenly, it's hard to breathe
D#                D#/C#                  Cm           B
Now and then I get insecure, from all the pain, I'm so ashamed

Ab                Fm
I am beautiful no matter what they say
D#          C#    Cm
Words can't bring me down
Ab                Fm
I am beautiful in every single way
    D#          C#   Cm
Yes words can't bring me down
Fm                          D#    D#/C#    D#/C    Cm
So don't you bring me down today

D#                           D#/C#          D#/C              B
To all your friends you're delirious, so consumed, in all your doom
D#                      D#/C#                 D#/C                  B
Trying hard to fill the emptiness, the pieces gone, left the puzzle undone, is that the way it is?

G#                Fm
You are beautiful no matter what they say
D#          D#/C#     Cm
Words can't bring you down, no, no
G#                         Fm
Cause you are beautiful in every single way
    D#          D#/C#     Cm
Yes words can't bring you down, oh, no
Fm                         D#
So don't you bring me down today

(D#)              D#/C#                 Cm                          B
No matter what we do, no matter what we say, we're the song inside the tune, full of beautiful mistakes
D#                D#/C#
And everywhere we go (and everywhere we go)
                   Cm
the sun will always shine
(The sun will Always, Always, Shine)
                B
and we might awake on the other side

Ab                         Fm
'Cause we are beautiful no matter what they say
    D#            C#     Cm
Yes words won't bring us down, no
Ab                  Fm
We are beautiful in every single way
    D#            C#     Cm
Yes words can't bring us down, oh ,no
Fm                         D#
So don't you bring me down today

Final:
 D#                 D#/C#           Cm             B
|-------------------------------4-3------------------------------|
|--------------9-8------------------------------3-4--------------|
|-9---9---9---------6---6---6-------5---5---5-------4---4---4----|
|-9---9---9---------6---6---6-------5---5---5-------4---4---4----|
|---6---6---6--6-6----4---4---4-4-4---3---3---3-3-3---2---2---2--|
|----------------------------------------------------------------|
Acordes para:
    Composição: Linda PerryColaboração e revisão:
    • jefferson santos
    • Fernanda Abdala
    • Luiz Diola

    0 comentários

      mostrar mais comentários

      Conseguiu tocar?

      16tocaram0ainda não

      Grave um vídeo tocando Beautiful e mande pra gente!

      00:00 / 00:00
      outros vídeos desta música
      repetirqualidadeautomática
      Outro vídeos desta música
        00:00 / 00:00
        automática
        OK