Cifra Club

Maravilhoso

Cia. Salt

Cifra: Principal (violão e guitarra)
tom: B (forma dos acordes no tom de A) Capotraste na 2ª casa
[Intro] A9  B9  G#m7  C#m

 A9  B9   G#m7  C#m
Je--sus, Je----sus
 A9  B9   G#m7  C#m
Je--sus, Je----sus

[Primeira Parte]

                A9
Teu nome é tão doce
            B9
Tua voz é suave
             G#m7
Olhando pra Ti 
                 C#m
Não vejo condenação
                A9
Tua graça me envolve
            B9
Estou fascinado
      G#m7            C#m
Gastarei meus dias a Ti servir

[Pré-Refrão]

         A9
Pois em meu coração 

Levantei uma tenda
      F#m7
Onde possa habitar 
       
A Tua presença
   G#m7                     C#m
E permanecer queimando por Ti

   A9
E meu coração 

Levantei uma tenda
      F#m7
Onde possa habitar 
       
A Tua presença
   G#m7                     C#m
E permanecer queimando por Ti

( A9  F#m7  C#m )
( A9  F#m7  C#m )

[Solo 2x - sem capotraste] 

E|------------------------------------------|
B|-11~---14--16--11~---14--16---------------|
G|------------------------------------------|
D|------------------------------------------|
A|------------------------------------------|
E|------------------------------------------|

E|------------------------------------------|
B|-12~---14--12--11~------------------------|
G|------------------------------------------|
D|------------------------------------------|
A|------------------------------------------|
E|------------------------------------------|

[Primeira Parte]

                A9
Teu nome é tão doce
            B9
Tua voz é suave
             G#m7
Olhando pra Ti 
                 C#m
Não vejo condenação
                A9
Tua graça me envolve
            B9
Estou fascinado
      G#m7            C#m
Gastarei meus dias a Ti servir

[Pré-Refrão]

         A9
Pois em meu coração 

Levantei uma tenda
      F#m7
Onde possa habitar 
       
A Tua presença
   G#m7                     C#m
E permanecer queimando por Ti

   A9
E meu coração 

Levantei uma tenda
      F#m7
Onde possa habitar 
       
A Tua presença
   G#m7                     C#m
E permanecer queimando por Ti

[Solo - sem capotraste] 

Parte 1 de 3 - 2x

E|------------------------------------------|
B|-11~---14--16--11~---14--16---------------|
G|------------------------------------------|
D|------------------------------------------|
A|------------------------------------------|
E|------------------------------------------|

E|------------------------------------------|
B|-12~---14--12--11~------------------------|
G|------------------------------------------|
D|------------------------------------------|
A|------------------------------------------|
E|------------------------------------------|

Parte 2 de 3 - 2x

E|------------------------------------------|
B|-11-11-11-11-11-11-11-11------------------|
G|------------------------------------------|
D|------------------------------------------|
A|------------------------------------------|
E|------------------------------------------|

E|------------------------------------------|
B|-14-14-14-14-16-16-16-16------------------|
G|------------------------------------------|
D|------------------------------------------|
A|------------------------------------------|
E|------------------------------------------|

Parte 3 de 3

E|------------------------------------------|
B|-12-12-12-12-12-12-12-12------------------|
G|------------------------------------------|
D|------------------------------------------|
A|------------------------------------------|
E|------------------------------------------|

E|------------------------------------------|
B|-14-14-14-14-12-12-12-12------------------|
G|------------------------------------------|
D|------------------------------------------|
A|------------------------------------------|
E|------------------------------------------|

E|------------------------------------------|
B|-11---11---11---11---11---11---11---11----|
G|----8----8----8----8----8----8----8----8--|
D|------------------------------------------|
A|------------------------------------------|
E|------------------------------------------|

   A9  F#m7  C#m
Jesus
   A9  F#m7  C#m
Jesus
   A9  F#m7  C#m
Jesus

[Refrão]

        A9        B9
Maravilhoso, poderoso
       G#m7
Dia e noite
                C#m
Vem queimar em mim

        A9        B9
Maravilhoso, poderoso
       G#m7
Dia e noite
                C#m
Vem queimar em mim

[Solo] A9  B9  G#m7  C#m
       A9  B9  G#m7  C#m

E|------------------------------------------|
B|-------------------/9-9-9-9---------------|
G|-/8~--/10~--/11~--------------------------|
D|------------------------------------------|
A|------------------------------------------|
E|------------------------------------------|

E|------------------------------------------|
B|-----------9--9h11--11~-------9--9/14--14~|
G|-8--8--11----------------8-11-------------|
D|------------------------------------------|
A|------------------------------------------|
E|------------------------------------------|

E|----14-----14-----13-----13-----11-----11-|
B|-11-----11-----11-----11-----11-----11----|
G|------------------------------------------|
D|------------------------------------------|
A|------------------------------------------|
E|------------------------------------------|

E|-------11---------------------------------|
B|-11-14-----11~----------------------------|
G|------------------------------------------|
D|------------------------------------------|
A|------------------------------------------|
E|------------------------------------------|

(variação final)

E|-------11---------------------------------|
B|-11-14-----14b16~-------------------------|
G|------------------------------------------|
D|------------------------------------------|
A|------------------------------------------|
E|------------------------------------------|

[Refrão]

        A9        B9
Maravilhoso, poderoso
       G#m7
Dia e noite
                C#m
Vem queimar em mim

        A9        B9
Maravilhoso, poderoso
       G#m7
Dia e noite
                C#m
Vem queimar em mim
00:00 / 00:00
Outros vídeos desta música
Repetir
Outros vídeos desta música
Composição de Douglas Siqueira
Colaboração e revisão:
  • Lucas Kappaun
26.173 exibições
    • ½ Tom
    • A
    • Bb
    • B
    • C
    • Db
    • D
    • Eb
    • E
    • F
    • F#
    • G
    • Ab
  • Adicionar à lista

    0 comentários

    Ver todos os comentários

    Conseguiu tocar?

    6 Tocaram 8 Ainda não

    Grave um vídeo tocando Maravilhoso e nos envie!

    Entre para oCifra Club PRO

    Tenha acesso a benefícios exclusivos no App e no Site

    • Chega de anúncios

    • Prioridade de compra em lançamentos

    • Mais recursos no app do Afinador

    • Atendimento Prioritário

    • Descontos nos produtos Cifra Club

    • Ajude a produzir mais conteúdo

    00:00 / 00:00

    Cifra Club Pro

    Aproveite o Cifra Club com benefícios exclusivos e sem anúncios
    Cifra Club Pro
    Aproveite o Cifra Club com benefícios exclusivos e sem anúncios
    OK