Cifra Club

Quero Conhecer Jesus (O Meu Amado É o Mais Belo)

Cia. Salt

Cifra: Principal (violão e guitarra)
exibições 620.425
Tom: A
[Intro] C9  D9  Em7  Bm7
        C9  D9  Em7  Bm7

         C9                   D9
O meu orgulho me tirou do jardim
          Em7                      Bm7
Tua humildade colocou o jardim em mim
            C9
E se eu vender tudo o que tenho
     D9                   Em7  Bm7
Em troca do amor eu falharia
         C9                 D9
Pois o amor não se compra, nem se merece
    Em7               Bm7
O amor se ganha, de graça o recebe

     C9              D9
Eu quero conhecer Jesus
     Em7             Bm7
Eu quero conhecer Jesus (e ser achado Nele)
     C9              D9
Eu quero conhecer Jesus
     Em7             Bm7
Eu quero conhecer Jesus

( C9  D9  Em7  Bm7 )
( C9  D9  Em7  Bm7 )

         C9                   D9
O meu orgulho me tirou do jardim
          Em7                      Bm7
Tua humildade colocou o jardim em mim
            C9
E se eu vender tudo o que tenho
     D9                   Em7  Bm7
Em troca do amor eu falharia
         C9                 D9
Pois o amor não se compra, nem se merece
    Em7               Bm7
O amor se ganha, de graça o recebe

     C9              D9
Eu quero conhecer Jesus
     Em7             Bm7
Eu quero conhecer Jesus (e ser achado Nele)
     C9              D9
Eu quero conhecer Jesus
     Em7             Bm7
Eu quero conhecer Jesus

      C9            Em7
Meu Amado é o mais belo
       D/F#  G9         D/F#
Entre mi---lhares e milhares
      C9            Em7
Meu Amado é o mais belo
       D/F#  G9         D/F#
Entre mi---lhares e milhares
      C9            Em7
Meu Amado é o mais belo
       D/F#  G9         D/F#
Entre mi---lhares e milhares

[Solo] C9  Em7  D/F#  G9  D/F#

E|------------------------------------|
B|--14---17---14---21---10---17---9---|
G|------------------------------------|  (2x)
D|------------------------------------|
A|------------------------------------|
E|------------------------------------|

E|--------------------------------------|
B|-3-5---3-5---3-5---3-5-7-8-7-8-12-7---|
G|--------------------------------------|
D|--------------------------------------|
A|-2-3---2-3---2-3---2-3-5-7-5-7-10-5---|
E|--------------------------------------|

    C9  D/F#  Em7  Bm7
Yeshua
    C9  D/F#  Em7  Bm7
Yeshua
    C9  D/F#  Em7  Bm7
Yeshua

      C9            Em7
Meu Amado é o mais belo
       D/F#  G9         D/F#
Entre mi---lhares e milhares
      C9            Em7
Meu Amado é o mais belo
       D/F#  G9         D/F#
Entre mi---lhares e milhares
      C9            Em7
Meu Amado é o mais belo
       D/F#  G9         D/F#
Entre mi---lhares e milhares

E|--------------------------------------|
B|-3-5---3-5---3-5---3-5-7-8-7-8-12-7---|
G|--------------------------------------|
D|--------------------------------------|
A|-2-3---2-3---2-3---2-3-5-7-5-7-10-5---|
E|--------------------------------------|

0 comentários

    mostrar mais comentários

    Conseguiu tocar?

    84tocaram24ainda não

    Grave um vídeo tocando Quero Conhecer Jesus (O Meu Amado É o Mais Belo) e mande pra gente!

    00:00 / 00:00
    outros vídeos desta música
    repetirqualidadeAutomático
    Outro vídeos desta música
      00:00 / 00:00
      OK