Cifra Club

Meu Reino Encantado

Daniel

Cifra: Principal (violão e guitarra)
exibições 675.380
Tom: B
[Intro] B  F#  B  F#

[Solo]

          B               F#                                   B
E|------7---7-11-7--16-14--14-14-14-|-------9----9--14-14-12-11--11-11-11--------|
B|----7---7-------------------------|----11---11---------------------------------|
G|--8-------------------------------|-11-----------------------------------------|
D|----------------------------------|--------------------------------------------|
A|----------------------------------|--------------------------------------------|
E|----------------------------------|--------------------------------------------|

                            F#
E|------7---7-11-9-11-12|-12-11-9-7-------9-7-------------------------------------|
B|----7---7-------------|-----------11--------11-9-7----11-9-7--------7-----------|
G|--8-------------------|--------------------------------------9-8------9-8-------|
D|----------------------|---------------------------------------------------11-9--|
A|----------------------|---------------------------------------------------------|
E|----------------------|---------------------------------------------------------|

     B
E|----------------------------------|
B|----------------------------------|
G|----------------------------------|
D|---2-4-2--------------------------|
A|-6-------4-2----------------------|
E|----------------------------------|

       B
Eu nasci num recanto feliz
                      F#
Bem distante da povoação
Foi ali que eu vivi muitos anos
       E     F#         B
Com papai mamãe e os irmãos
         B
Nossa casa era uma casa grande
                      F#
Na encosta de um espigão

E|-------8/9------11-8/9---11/14----|
B|----11----11/12-------11----------|
G|-11-------------------------------|
D|----------------------------------|
A|----------------------------------|
E|----------------------------------|

        F#
 Um cercado pra parta bezerro
                             B
E ao lado  um grande mangueirão

E|-----------------------------------|
B|-----------------------------------|
G|------------------------------6-4--|
D|---2-4-2---4-4--------2-4-2-4------|
A|-6-------6------6-4-6--------------|
E|-----------------------------------|

        B
No quintal tinha um forno de lenha
                            F#
E um pomar onde as aves cantavam
Um coberto pra guardar o pilão
  E    F#          B
E as traias que papai usava
 B
De manhã eu ia no paiol
                          F#
Uma espiga de milho eu pegava

E|-------8/9------11-8/9---------------|
B|----11----11/12-------11--11-11-11---|
G|-11----------------------------------|
D|-------------------------------------|
A|-------------------------------------|
E|-------------------------------------|

 F#
Debuiava e jogava no chão
                             B
Num instante as galinhas juntava


          B               F#                                   B
E|------7---7-11-7--16-14--14-14-14-|-------9----9--14-14-12-11--11-11-11--------|
B|----7---7-------------------------|----11---11---------------------------------|
G|--8-------------------------------|-11-----------------------------------------|
D|----------------------------------|--------------------------------------------|
A|----------------------------------|--------------------------------------------|
E|----------------------------------|--------------------------------------------|

                            F#
E|------7---7-11-9-11-12|-12-11-9-7-------9-7-------------------------------------|
B|----7---7-------------|-----------11--------11-9-7----11-9-7--------7-----------|
G|--8-------------------|--------------------------------------9-8------9-8-------|
D|----------------------|---------------------------------------------------11-9--|
A|----------------------|---------------------------------------------------------|
E|----------------------|---------------------------------------------------------|

     B
E|----------------------------------|
B|----------------------------------|
G|----------------------------------|
D|---2-4-2--------------------------|
A|-6-------4-2----------------------|
E|----------------------------------|

       B
Nosso carro de boi conservado
                             F#
Quatro juntas de bois de primeira
Quatro cangas, dezesseis cansis
      E        F#       B
Encostados no pé da figueira
   B
Todo sabado eu ia na vila
                           F#
Fazer compra pra semana inteira

E|-------8/9------11-8/9---11/14---|
B|----11----11/12-------11---------|
G|-11------------------------------|
D|---------------------------------|
A|---------------------------------|
E|---------------------------------|

      F#
 O papai ia gritando com os bois
                            B
Eu na frente abrindo as porteiras

E|----------------------------------|
B|----------------------------------|
G|-----------------------------6-4--|
D|---2-4-2---4-4--------2-4-2-------|
A|-6-------6------6-4-6-------------|
E|----------------------------------|

       B
Nosso sítio que era pequeno
                           F#
Pelas grandes fazendas cercado
Precisamos vender a propriedade
          E       F#       B
Para um grande criador de gado
B
E partimos pra a cidade grande
                         F#
A saudade partiu ao meu lado

E|-------8/9------11-8/9----------------|
B|----11----11/12-------11--11-11-11----|
G|-11-----------------------------------|
D|--------------------------------------|
A|--------------------------------------|
E|--------------------------------------|

     F#
A lavoura virou colonião
                            B
E acabou-se meu reino encantado

          B               F#                                   B
E|------7---7-11-7--16-14--14-14-14-|-------9----9--14-14-12-11--11-11-11--------|
B|----7---7-------------------------|----11---11---------------------------------|
G|--8-------------------------------|-11-----------------------------------------|
D|----------------------------------|--------------------------------------------|
A|----------------------------------|--------------------------------------------|
E|----------------------------------|--------------------------------------------|

                            F#
E|------7---7-11-9-11-12|-12-11-9-7-------9-7-------------------------------------|
B|----7---7-------------|-----------11--------11-9-7----11-9-7--------7-----------|
G|--8-------------------|--------------------------------------9-8------9-8-------|
D|----------------------|---------------------------------------------------11-9--|
A|----------------------|---------------------------------------------------------|
E|----------------------|---------------------------------------------------------|

     B
E|----------------------------------|
B|----------------------------------|
G|----------------------------------|
D|---2-4-2--------------------------|
A|-6-------4-2----------------------|
E|----------------------------------|

       B
Hoje ali só existe tres coisas
                           F#
Que o tempo ainda não deu fim
A tapera velha desabada
        E        F#         B
E a figueira acenando pra mim
E por ultimo marcou saudade
                           F#
De um tempo bom que já se foi

E|-------8/9------11-8/9----------------|
B|----11----11/12-------11--11-11-11----|
G|-11-----------------------------------|
D|--------------------------------------|
A|--------------------------------------|
E|--------------------------------------|

       F#
 Esquecido em baixo da figueira
                      B
Nosso velho carro de boi

E|------------------------------|
B|------------------------------|
G|---------------6-4------------|
D|---------2-4-2----------------|
A|-2-6-4-6----------------------|
E|------------------------------|
Acordes para:

    0 comentários

      mostrar mais comentários

      Conseguiu tocar?

      33tocaram5ainda não

      Grave um vídeo tocando Meu Reino Encantado e mande pra gente!

      00:00 / 00:00
      outros vídeos desta música
      repetirqualidadeAutomático
      Outro vídeos desta música
        00:00 / 00:00
        OK