Cifra Club

Where Are You Going

Dave Matthews Band

Cifra: Principal
exibições 31.725
Tom: G
Intro:

          D9       D9/G      D9/B
E|--------0---------0---------0---------0---------|
B|-----3--3------3--3------3--3------3--3------3--|
G|-0/2----2--0/2----2--0/2----2--0/2----2--0/2----|
D|--------0---------0---------0---------0---------|
A|----------------------------2-------------------|
E|------------------3-----------------------------|



Dsus2              G                     Bm7        Asus2 
Where are you going, with your long face pulling down? 
             Dsus2        G 
Don't hide away like an ocean 
               Bm7               
But you can't see but you can smell 
         Asus2               D  
And the sound waves crash down 

D D/C   G/B  G/Bb
I am no superman 
D D/C     G/B    G/Bb   D  
I have no reasons  for you 
  D/C   G/B   G/Bb          D  
I am no hero, oh that's for sure 
      D/C     G/Bb
But I do know one thing 
                                Dsus2
Is where you are, is where I belong 
   C7M/9                                 Dsus2
I do know, where you go, is where I wanna be 

Dsus2            G       Bm7 Asus2 
Where are you going, 
              Dsus2
where do you go?  
                    G
Are you looking for answers, 
     Bm7                  Asus2
to questions under the stars? 
              Dsus2                 G    
If along the way you are growing weary, 
                   Bm7                 Asus2
you can rest with me until a brighter day 
            D
Yeah, okay 

D D/C   G/B  G/Bb
I am no superman 
D D/C     G/B    G/Bb   D  
I have no reasons  for you 
  D/C   G/B   G/Bb          D  
I am no hero, oh that's for sure 
      D/C     G/Bb
But I do know one thing 
                                Dsus2
Is where you are, is where I belong 
   C7M/9                                Dsus2
I do know, where you go, is where I wanna be 

Dsus2          G      Bm7  Asus2 
Where are you going, 
              
where do you go?  

Solo:


--15-14---------------------------------------------------------------------|
---------15-13--12------------------------------------------12-13~~/16^-----|
--------------------14--12-11------11--12-14-12------12-14------------------|
-------------------------------14-----------------14------------------------|
----------------------------------------------------------------------------|
----------------------------------------------------------------------------|


--15-14----------------------------------------------------------------------|
---------15-13--12------------------------------------------12-13-15~~-------|
--------------------14--12-11------11--12-14-12------12-14-------------------|
-------------------------------14-----------------14-------------------------|
-----------------------------------------------------------------------------|
-----------------------------------------------------------------------------|

 
             Dsus2                G       Bm7 Asus2 
Where do you go - where are you going, 
              Dsus2
where do you go?  

D D/C   G/B  G/Bb
I am no superman 
D D/C     G/B    G/Bb   D  
I have no reasons  for you 
  D/C   G/B   G/Bb          D  
I am no hero, oh that's for sure 
      D/C     G/Bb
But I do know one thing 
                                Dsus2
Is where you are, is where I belong 
   C7M/9                                 Dsus2
I do know, where you go, is where I wanna be 

Dsus2           G       Bm7 Asus2 
Where are you going, 
              Dsus2
where do you go?  
               G      Bm7 Asus2
Where are you going ?
       
Where do you go
       Dsus2
Let's go.
Acordes para:
    Composição: Dave MatthewsColaboração e revisão:
    • Welington Nunes
    • Mateus Brittes

    0 comentários

      mostrar mais comentários

      Conseguiu tocar?

      0tocaram0ainda não

      Grave um vídeo tocando Where Are You Going e mande pra gente!

      00:00 / 00:00
      outros vídeos desta música
      repetirqualidadeautomática
      Outro vídeos desta música
        00:00 / 00:00
        automática
        OK