Cifra Club

So Much To Say

Dave Matthews Band

Cifra: Principal
exibições 3.566
Tom: D
Intro:
E|-------5---------------------------5-------------------------------------|
B|-------5---------------------------5-------------------------------------|
G|-------5---------------------------5-------------------------------------|
D|---------5/7-------------------------5-7---------------------------------|
A|-------------7----------------------------7------------------------------|
E|-3/5------------0----7\0---0/5---------------0--7\0----------------------|

Verso:
E|-------5-----------------------------------------------------------------|
B|-------5-----------------------------------------------------------------|
G|-------5-------------------------------10-----------------7--------------|
D|---------5/7-----------5------------------------------7------------------|
A|-------------7-----3-------------------7---------5-----------------------|
E|-3/5------------1---------0/10---------------3---------------------------|

E|-------------------------------------------------------------------------|
B|-------------------------------------------------------------------------|
G|----------5--7-----------------------------------------------------------|
D|----------6--7--------7-----5----7---------------------------------------|
A|-------------------------------------------------------------------------|
E|-------------------------------------------------------------------------|

Ponte:
A     D    G        D
Sometimes I find it easy to be myself
A     D    G        D
SOmetimes I find it better to be somebody else
E|-----------------------------|
B|-----------------------------|
G|-14-12-----------------------|
D|-------14-12-----------------|
A|--------------15--12---------|
E|-----------------------------|

Acordes para:
    Composição: Boyd Tinsley / Dave Matthews / Peter GriesarColaboração e revisão:
    • Danilo Kei

    0 comentários

      mostrar mais comentários

      Conseguiu tocar?

      0tocaram0ainda não

      Grave um vídeo tocando So Much To Say e mande pra gente!

      00:00 / 00:00
      outros vídeos desta música
      repetirqualidadeautomática
      Outro vídeos desta música
        00:00 / 00:00
        automática
        OK