Cifra Club

Venha O Teu Reino

Davi Sacer

Cifra: Principal (violão e guitarra)
exibições 489.943
Tom: F
[Intro] Bb  F  Dm  C  Bb  F  Dm  C

Bb       F             Dm           C       Bb
  Nosso Pai que o Teu nome seja mantido Santo
      F         C
Venha o Teu Reino
Bb        F         Dm         C           Bb
  Dá-nos hoje o alimento necessário pra viver
          F     C
O pão de cada dia

    Bb       F       Dm        C
Perdoa os erros Que temos cometido
      Bb  F               Dm    C
Como perdoamos quem nos ofendeu
         Bb     F       Dm         C
Não nos deixe cair em provações severas
     Bb    F      C
Mas livra-nos do mal

             Bb                  F
Venha o Teu Reino faça a Tua vontade
               Am               Gm
Seja assim na Terra  como é no Céu
             Bb                  F
Venha o Teu Reino faça a Tua vontade
               Am               Gm
Seja assim na Terra  como é no Céu

( Bb  C  F  Dm  Bb  C  F )

[Riff]

E|-------------------------------|
B|------13-----------------------|
G|-14-12--14-12-12/14-12-10-9-10-|
D|-------------------------------|
A|-------------------------------|
E|-------------------------------|

E|-------------------------------|
B|----------13-------------------|
G|-12/14-12----12/14-12--10--10--|
D|-------------------------------|
A|-------------------------------|
E|-------------------------------|

Bb       F             Dm           C       Bb
  Nosso Pai que o Teu nome seja mantido Santo
      F         C
Venha o Teu Reino
Bb        F         Dm         C           Bb
  Dá-nos hoje o alimento necessário pra viver
          F     C
O pão de cada dia

    Bb       F       Dm        C
Perdoa os erros Que temos cometido
      Bb  F               Dm    C
Como perdoamos quem nos ofendeu
         Bb     F       Dm         C
Não nos deixe cair em provações severas
     Bb    F      C
Mas livra-nos do mal

             Bb                  F
Venha o Teu Reino faça a Tua vontade
               Am               Gm
Seja assim na Terra  como é no Céu
             Bb                  F
Venha o Teu Reino faça a Tua vontade
               Am
Seja assim na Terra  como é no Céu

[Solo] Gm  Am  Bb  C  Dm  E5  F  C

E|------------------------------------------------------|
B|------------------------6-3---------------------------|
G|-----1/3~--5-5-5b7-5b7------5b7~--5/9--9--9b10-9b10~--|
D|------------------------------------------------------|
A|------------------------------------------------------|
E|-12/--------------------------------------------------|

E|------------------------------------------------------|
B|-----------------------13--10--------13b15r13p10--13~-|
G|-/12--12--12b14-12b14~--------12b14~------------------|
D|------------------------------------------------------|
A|------------------------------------------------------|
E|------------------------------------------------------|

E|-----------------------------------------------------------------|
B|-----------------------------------------13-15--18-17-18-15-17-|
G|-------------12--14h15p14p12----12-14-15-------------------------|
D|-------12-15-----------------15----------------------------------|
A|-12-13-----------------------------------------------------------|
E|-----------------------------------------------------------------|

E|-15-20-15----20b22~------|
B|----------18-------------|
G|-------------------------|
D|-------------------------|
A|-------------------------|
E|-------------------------|

Bb                     F
  Porque o Reino, o poder e a glória
Dm                C
   São Teus para sempre
Bb                     F
  Porque o Reino, o poder e a glória
Dm                C
   São Teus para sempre

[Riff]

E|-------------------------------|
B|------13-----------------------|
G|-14-12--14-12-12/14-12-10-9-10-|
D|-------------------------------|
A|-------------------------------|
E|-------------------------------|

E|-------------------------------|
B|----------13-------------------|
G|-12/14-12----12/14-12--10--10--|
D|-------------------------------|
A|-------------------------------|
E|-------------------------------|

[Variação]

E|-17-15-20--17-15--15/17-15----------|
B|---------------------------18-17-18-|
G|------------------------------------|
D|------------------------------------|
A|------------------------------------|
E|------------------------------------|

E|-15/17-15--20--15/17-15-------------|
B|------------------------18--18------|
G|------------------------------------|
D|------------------------------------|
A|------------------------------------|
E|------------------------------------|

   Bb  C   F  Dm
Amé - é - é - ém
  Bb    C     F
Amé - é - é - ém
  Bb   C  F   Dm
Amé - é - é - ém

( Bb  C   F )

0 comentários

    mostrar mais comentários

    Conseguiu tocar?

    44tocaram2ainda não

    Grave um vídeo tocando Venha O Teu Reino e mande pra gente!

    00:00 / 00:00
    outros vídeos desta música
    repetirqualidadeAutomático
    Outro vídeos desta música
      00:00 / 00:00
      OK