Cifra Club

Deus De Perto

Delino Marçal

Cifra: Principal (violão e guitarra)
Selo Cifra Club: esta cifra foi revisada para atender aos critérios oficiais da nossa Equipe de Qualidade.
tom: C
[Intro]

    G9                
E|-------------------------------------------------|
B|----------0--------------------------------------|
G|------0-2---2----2--4-2-0------------------------|
D|----0----------------------0---------------------|
A|-------------------------------------------------|
E|--3----------------------------------------------|

    Em7(9)
E|----------2--------------------------------------|
B|-------------------------------------------------|
G|--------0---2---2--4-2-0-------------------------|
D|----2/4-------------------0----------------------|
A|-------------------------------------------------|
E|--0----------------------------------------------|

    G9                
E|-------------------------------------------------|
B|----------0--------------------------------------|
G|------0-2---2----2--4-2-0------------------------|
D|----0----------------------0---------------------|
A|-------------------------------------------------|
E|--3----------------------------------------------|

    Em7(9)
E|----------2--------------------------------------|
B|-------------------------------------------------|
G|--------0---2---2--4-2-0-------------------------|
D|----2/4------------------0-----------------------|
A|-------------------------------------------------|
E|--0----------------------------------------------|

[Dedilhado da Primeira Parte]

   G                
E|-3-------3-------3-------3-------3-------3-------3-------3------|
B|---3---3---3---3---3---3---3---3---3---3---3---3---3---3---3---3|
G|-----0-------0-------0-------0-------0-------0-------0-------0--|
D|----------------------------------------------------------------|
A|----------------------------------------------------------------|
E|-3-------------------------------3------------------------------|

   C9                
E|-3-------3-------3-------3-------3-------3-------3-------3------|
B|---3---3---3---3---3---3---3---3---3---3---3---3---3---3---3---3|
G|-----0-------0-------0-------0-------0-------0-------0-------0--|
D|----------------------------------------------------------------|
A|-3-------------------------------3------------------------------|
E|----------------------------------------------------------------|

   G                
E|-3-------3-------3-------3-------3-------3-------3-------3------|
B|---3---3---3---3---3---3---3---3---3---3---3---3---3---3---3---3|
G|-----0-------0-------0-------0-------0-------0-------0-------0--|
D|----------------------------------------------------------------|
A|----------------------------------------------------------------|
E|-3-------------------------------3------------------------------|

   C9                
E|-3-------3-------3-------3-------3-------3-------3--------------|
B|---3---3---3---3---3---3---3---3---3---3---3---3-3--------------|
G|-----0-------0-------0-------0-------0-------0---0--------------|
D|----------------------------------------------------------------|
A|-3-------------------------------3---------------3--------------|
E|----------------------------------------------------------------|

    G 
Sou Deus que muda as estações

Que conhece os corações
    C9
Que muda as coisas de lugar
    G
Sou Deus de perto e Deus de longe
 
Deus de agora e do futuro
C9                             
Que derruba os muros, só por te amar

[Refrão]

       G               G9
Então deixa, eu por as coisas no lugar
C7M
Deixa, eu tô aqui pra te ensinar
Em7(9)
Não é do teu jeito, meu jeito é perfeito
     D
Faço tudo diferente, confunde tua mente
Am7     G/B   C9  Cm7M
Só por te amar

    G 
Sou Deus que muda as estações
G9
Que conhece os corações
    C7M
Que muda as coisas de lugar
    G
Sou Deus de perto e Deus de longe
 
G9
Deus de agora e do futuro
C7M                             
Que derruba os muros, só por te amar

[Refrão]

       G               G9
Então deixa, eu por as coisas no lugar
 C7M
Deixa, eu tô aqui pra te ensinar
Em7(9)
Não é do teu jeito, meu jeito é perfeito
     D
Faço tudo diferente, confunde tua mente
Am7     G/B   C9  D9
Só por te amar

  Am7                                
Você não está entendendo agora
          C9
Mais no futuro você vai entender
    D9/F#
Que tudo que eu faço filho,
  G/B
É por amar você

  Am7
Você não está entendendo agora
          C9
Mais no futuro você vai entender
    D9/F#
Que tudo que eu faço filho,
      Am7   G/B   C9
É pra ver você crescer

[Refrão]

      G             
Então deixa, eu por as coisas no lugar
C9
Deixa, eu tô aqui pra te ensinar
Em7(9)
Não é do teu jeito, meu jeito é perfeito
     D
Faço tudo diferente, confunde tua mente
Am7     G/B   C9  D9
Só por te amar

      G/B             
Então deixa, eu por as coisas no lugar
 C9
Deixa, eu tô aqui pra te ensinar
Em7(9)
Não é do teu jeito, meu jeito é perfeito
     D
Faço tudo diferente, confunde tua mente
Am7     G/B   C9
Só por te amar

    G 
Sou Deus que muda as estações

Que conhece os corações
    C9                      C9  G
Que muda as coisas de lugar
00:00 / 00:00
Outros vídeos desta música
Repetir
Outros vídeos desta música
3.310 exibições
    • ½ Tom
    • A
    • Bb
    • B
    • C
    • Db
    • D
    • Eb
    • E
    • F
    • F#
    • G
    • Ab
  • Adicionar à lista

Afinação da cifra

Afinador online

    0 comentários

    Ver todos os comentários

    Entre para o Cifra Club PRO

    Tenha acesso a benefícios exclusivos no App e no Site

    • Chega de anúncios

    • Mais recursos no app do Afinador

    • Atendimento Prioritário

    • Aumente seu limite de lista

    • Ajude a produzir mais conteúdo

    00:00 / 00:00

    Cifra Club Pro

    Aproveite o Cifra Club com benefícios exclusivos e sem anúncios
    Cifra Club Pro
    Aproveite o Cifra Club com benefícios exclusivos e sem anúncios
    OK