Notificações Amigos pendentes

      Ministério Avivah

      Maranata

      427.963 exibições
      Tom: A#
      Intro base: Cm  G#  D#  A#
      
      Intro solo:
      
      
      E|-10-9-7----------------------|
      B|---------10-7-10-------------|
      G|------------------9----------|
      D|-----------------------------|
      A|-----------------------------|
      E|-----------------------------|
      
      
      Cm                 G#
         Tu és a minha luz,  a minha salvação
           D#          A#
      E a Ti me renderei
      
      
      Cm                       G#
         Se ao Teu lado estou, seguro em tuas mãos
         D#       A#
      Eu nada temerei
      
      G#    A#   Cm        D#         A#
      Oh   Oh    Oh Tu és Santo oh Senhor
      G#    A#    Cm        D#          A#
      Oh   Oh    Oh, Tu és Digno de Louvor
      
      G#               D#                 Cm
      Só em Ti confiarei, eu nada temerei
                    A#                          G#
      Em frente eu irei, pois eu sei que vivo estás
                     Cm                  D#
      E um dia voltarás, do céu pra nos buscar
                     A#           G#
      Pra sempre reinarás, Aleluia
      
      Ponte base: Cm  G#  D#  A# (2x)
      
      Ponte solo (igual Intro) 2x:
      
      
      E|-10-9-7----------------------|
      B|---------10-7-10-------------|
      G|------------------9----------|
      D|-----------------------------|
      A|-----------------------------|
      E|-----------------------------|
      
      
      
      Cm                G#
         Tu és a minha luz,  a minha salvação
          D#         A#
      E a Ti me renderei
      
      
      Cm                       G#
         Se ao Teu lado estou, seguro em tuas mãos
         D#       A#
      Eu nada temerei
      
      G#      A#     Cm              D#               A#
      Oh   Oh    Oh, Tu és Santo oh Senhor
      G#    A#     Cm        D#            A#
      Oh   Oh    Oh, Tu és Digno de Louvor
      
      G#                  D#          Cm
      Só em Ti confiarei, eu nada temerei
                    A#                           G#
      Em frente eu irei, pois eu sei que vivo estás
                    Cm                      D#
      E um dia voltarás, do céu pra nos buscar
                       A#             G#
      Pra sempre reinarás, Aleluia (2x)
      
      Solo base:
      Cm   D#  A#  G# 2x
      
      
      Solo:
      
      E|--------------------------------------------------------------|
      B|------7-10-(32x) e finaliza na nota --------------------------|
      G|-7-9------------------------------------------7 (deixa soar)--|
      D|--------------------------------------------------------------|
      A|--------------------------------------------------------------|
      E|--------------------------------------------------------------|
      
      
      Ponte:
      
      E|---------------------------------|
      B|------7-----8-7------7-----------|
      G|-7-9------7-----7-9----6-7-6h7p6-|
      D|---------------------------------|
      A|---------------------------------|
      E|---------------------------------|
      
      
             D#           G#
      Vem Jesus, vem Jesus
           D#                      A#
      Maranata, ora vem Senhor Jesus (8x)
        Composição: Hananiel EduardoColaboração e revisão:
        • Thais
        • Marcos
        • Eduardo
        • jacob
        • +43

        Comentários 48

        140 .
        • henrique henrique: Em 20/08/2016 23:11

          Suspeitei desde o princípio

        • matheus matheus: Em 08/08/2016 17:35

          Ta no tom errado. o certo é D#

          • rubens rubens: Em 18/08/2016 00:35

            O tom não bate,prefiro não tocar!!!

        • jonatas jonatas: Em 21/07/2016 13:42

          sabe o que capotraste não..
          a cifra não esta em siplificada

        • Giovani Giovani: Em 14/07/2016 17:30

          OS CARA É FODA , TINHA ARRUMADO A CIFRA NO ORIGINAL ,CARA VEM E COLOCA EM D# ,E OS ADM ACEITA PELO AMOR DE DEUS EM

          • estevan estevan: Em 27/07/2016 21:29

            cruel, eu perdi um dia corrigindo e estava perfeita... daí aceitaram essa versão!

        • wikson wikson: Em 19/06/2016 23:17

          Quando coloca no tom de G os acordes que era para serem A, ficam D.

        • cristiano cristiano: Em 19/06/2016 17:46

          Escala correta: Eb - Fm - Gm - Ab - Bb - Cm - Dº

          • cristiano cristiano: Em 19/06/2016 17:47

            A musica está em Eb e não D#, pois o relativo menor Cm é o sexto grau de Eb.

        • cristiano cristiano: Em 19/06/2016 17:44

          Por favor a musica está em Eb e não em D#, porque o relativo menor Cm é o sexto grau de Eb. Quem editou a musica precisa corrigi-la.
          Esca

        140 cancelar

        conseguiu tocar?

        • •••
        Eduardo Leão1.161 visualizações
          ver covers de outras músicas »
          0:00 / 0:00

          Capítulos

            play/pausefechar subir/descer velocidade
            6ª corda E5ª corda A4ª corda D3ª corda G2ª corda B1ª corda E
              acordes
              publicidade
              fechar
              ok