Enviar cifraEntrar

Maranata

Ministério Avivah

Cifra: Principal
exibições 628.208
Tom: G#
Intro base: Cm  G#  D#  A#

Intro solo:


E|-11-10-8--------------------------------------|
B|---------11-8-11------------------------------|
G|------------------10---------------------------|
D|------------------------------------------------|
A|------------------------------------------------|
E|------------------------------------------------|


Cm                     G#
   Tu és a minha luz,  a minha salvação
     D#          A#
E a Ti me renderei


Cm                       G#
   Se ao Teu lado estou, seguro em tuas mãos
    D#      A#
Eu nada temerei

G#   A#    Cm        D#         A#
Oh   Oh    Oh Tu és Santo oh Senhor
G#    A#     Cm         D#         A#
Oh   Oh    Oh, Tu és Digno de Louvor

G#               D#                 Cm
Só em Ti confiarei, eu nada temerei
              A#                          G#
Em frente eu irei, pois eu sei que vivo estás
               Cm                  D#
E um dia voltarás, do céu pra nos buscar
               A#           G#
Pra sempre reinarás, Aleluia

Ponte base: Cm  G#  D#  A# (2x)

Ponte solo (igual Intro) 2x:


E|-11-10-8---------------------------------------------|
B|---------11-8-11-------------------------------------|
G|------------------10----------------------------------|
D|-------------------------------------------------------|
A|-------------------------------------------------------|
E|-------------------------------------------------------|



Cm                  G#
   Tu és a minha luz,  a minha salvação
    D#          A#
E a Ti me renderei


Cm                       G#
   Se ao Teu lado estou, seguro em tuas mãos
  D#         A#
Eu nada temerei

G#     A#      Cm               D#          A#
Oh   Oh    Oh, Tu és Santo oh Senhor
G#       A#      Cm              D#          A#
Oh   Oh    Oh, Tu és Digno de Louvor

G#                D#            Cm
Só em Ti confiarei, eu nada temerei
               A#                         G#
Em frente eu irei, pois eu sei que vivo estás
              Cm                     D#
E um dia voltarás, do céu pra nos buscar
                 A#         G#
Pra sempre reinarás, Aleluia (2x)

Solo base:
Cm  G#  D#  A#  2x


Solo:

E|--------------------------------------------------------------------|
B|------8-11-(32x) e finaliza na nota --------------------------|
G|-8-10-----------------------------------------8------------------|
D|--------------------------------------------------------------------|
A|--------------------------------------------------------------------|
E|--------------------------------------------------------------------|


Ponte:

E|--------------------------------------------------------------|
B|------8------9-8--------8-----------------------------------|
G|-8-10------8------8-10-----7-8-7h8p7-----------------|
D|--------------------------------------------------------------|
A|--------------------------------------------------------------|
E|--------------------------------------------------------------|


       D#           G#
Vem Jesus, vem Jesus
     D#                      A#
Maranata, ora vem Senhor Jesus (8x)
  • 1
  • 2
  • 3
  • 4
  • 5
  • 6
  • 7
  • 8
  • 9
  • 10
  • 11
  • 12

    0 comentários

      mostrar mais comentários

      Conseguiu tocar?

      44tocaram2ainda não

      Grave um vídeo tocando Maranata e mande pra gente!

      00:00 / 00:00
      outros vídeos desta música
      repetirqualidadeautomática
      • automática
      Outro vídeos desta música
        00:00 / 00:00
        automática
        • automática
        fecharplay/pause subir/descer velocidade
          Acordes para:violão e guitarra
          acordes
          fechar
          OK