Cifra Club

Aprenda

Se Te Faz Feliz

Delittus

Cifra: Principal (violão e guitarra)
tom: Eb (forma dos acordes no tom de D) Capotraste na 1ª casa
E|-------------------------------------------------
B|-----3---3---3---------3------3-------3---3---3--
G|---2---2---2---2-----2------2---2---2---2---2----
D|-0-----------------2-----------------------------
A|-----------------4----------------2--------------
E|-------------------------------------------------

E|-------0----2h0------------------------0---------
B|-----3----3----3-----3---3---3-------3---3-------
G|---2---------------0---0---0---0---2-------2-----
D|-------------------------------------------------
A|-0-------------------------------------------0---
E|-----------------3---------------2---------------

E|------------------0-0-0-0--
B|-----3---3---3----2-2-2-2--
G|---0---0---0---0--2-2-2-2--
D|------------------2-2-2-2--
A|------------------0-0-0-0--
E|-0----------------x-x-x-x--

Você me fez mudar

E me fez acreditar

Quando não havia nada mais a crer

Mas, se é assim que tem que ser

É assim que tem que ser

E assim, vai ser

D
Pedir, eu nunca quis
      A                      Bm
Mas, se te faz feliz, me esqueça
      G
Me esqueça
D
  Eu vou estar aqui
      A                     Bm
Pra qualquer coisa que aconteça
            G
Não me esqueça




D                A4/C#
  Você me fez mudar
                Bm
E me fez acreditar
                               G
Quando não havia nada mais a crer
                             D4/F#
Mas, se é assim que tem que ser
                     Em
É assim que tem que ser
              A
E assim, vai ser

D
Pedir, eu nunca quis
      A                      Bm
Mas, se te faz feliz, me esqueça
      G
Me esqueça
D
  Eu vou estar aqui
      A                     Bm
Pra qualquer coisa que aconteça
            G
Não me esqueça


D
Mas vai, se te faz feliz
A                 Bm     G
Vai, se te faz feliz, feliz
D
Mas vai, se te faz feliz
A                 Bm     G
Vai, se te faz feliz, feliz


D                         D/C#
Eu já tentei não ser mais eu
                      Bm
Só pra não te machucar

E nos momentos que chorou
          Bm/A    G
E eu não pude ajudar
         D4/F#
Não dá mais
                            Em
Mas se é assim que tem que ser
                A
E é assim, vai ser

(paradinha)
Pedir, eu nunca quis
      A                      Bm
Mas, se te faz feliz, me esqueça
      G
Me esqueça
D
  Eu vou estar aqui
      A                     Bm
Pra qualquer coisa que aconteça
            G
Não me esqueça


D
Mas vai, se te faz feliz
A                 Bm     G
Vai, se te faz feliz, feliz
D
Mas vai, se te faz feliz
A                 Bm     G
Vai, se te faz feliz, feliz
Composição de Burn Eidelwein / Delittus
Colaboração e revisão:
  • Jaca Romualdo
  • eduarda araujo
  • Arthur Nunes
18.737 exibições
    • ½ Tom
    • A
    • Bb
    • B
    • C
    • Db
    • D
    • Eb
    • E
    • F
    • F#
    • G
    • Ab
  • Adicionar à lista

    0 comentários

    Ver todos os comentários

    Conseguiu tocar?

    2 Tocaram 0 Ainda não

    Grave um vídeo tocando Se Te Faz Feliz e nos envie!

    00:00 / 00:00
    Outros vídeos desta música
    Repetir Qualidade Automático
    Outros vídeos desta música
    00:00 / 00:00
    Automático

    Cifra Club Pro

    Aproveite o Cifra Club com benefícios exclusivos e sem anúncios
    Cifra Club Pro
    Aproveite o Cifra Club com benefícios exclusivos e sem anúncios
    OK