Cifra Club

Lolita Nie En Bloc

Noir Désir

Cifra: Principal (violão e guitarra)
Selo Cifra Club: esta cifra foi revisada para atender aos critérios oficiais da nossa Equipe de Qualidade.
tom: G
E|E|-----------------------------------------------------------||
          Noir Désir - Lolita Nie En Bloc
E|E|-----------------------------------------------------------||

Album : Tostaky (1992)
Tempo : 118
E-mail: gwendal.mollo@orange.fr
Tabbed by: newg

Intro :     
    Bm      A#m      Bm     G  
E|-------|-------|-------|-------|
B|-------|-------|-------|-------|
G|-------|-------|-------|-------| Guitare 2
D|-------|-------|-------|-------|
A|--2----|--1----|--2----|-------|
E|-------|-------|-------|--3----|

GUITAD  1 :

Couplets/Ponts : 
    Am
E|--0-----0--0--0-----0-----0--0--0-----0-----0-------|
B|--1-----1--1--1-----1-----1--1--1-----1-----1-------|
G|--2-----2--2--2-----2-----2--2--2-----2-----2-------|
D|--2-----2--2--2-----2-----2--2--2-----2-----2-------|
A|--0-----0--0--0-----0-----0--0--0-----0-----0-------|
E|----------------------------------------------------|

    C
E|--0-----0--0--0-----0-----0--0--0-----0-----0-------|
B|--1-----1--1--1-----1-----1--1--1-----1-----1-------|
G|--0-----0--0--0-----0-----0--0--0-----0-----0-------|
D|--2-----2--2--2-----2-----2--2--2-----2-----2-------|
A|--3-----3--3--3-----3-----3--3--3-----3-----3-------|
E|----------------------------------------------------|

    G
E|--3-----3--3--3-----3-----3--3--3-----3-----3-------|
B|--0-----0--0--0-----0-----0--0--0-----0-----0-------|
G|--0-----0--0--0-----0-----0--0--0-----0-----0-------|
D|--0-----0--0--0-----0-----0--0--0-----0-----0-------|
A|--2-----2--2--2-----2-----2--2--2-----2-----2-------|
E|--3-----3--3--3-----3-----3--3--3-----3-----3-------|

    D                       G
E|--2-----2--2--2-----2--2--3-----3--3--3-----3-------|
B|--3-----3--3--3-----3--3--0-----0--0--0-----0-------|
G|--2-----2--2--2-----2--2--0-----0--0--0-----0-------|
D|--0-----0--0--0-----0--0--0-----0--0--0-----0-------|
A|--------------------------2-----2--2--2-----2-------|
E|--------------------------3-----3--3--3-----3-------| x2 (pont x4)



GUITAD  2

Refrains :
     Bm                           A#m
E|----------------------------|----------------------------|
B|----------------------------|----------------------------|
G|----------------------------|----------------------------|
D|--4M-5M-4M-5M-4M-5M-4M-5M---|--3M-5M-3M-5M-3M-5M-3M-5M---|
A|----------------------------|----------------------------|
E|----------------------------|----------------------------|

 G                             G
E|----------------------------|----------(15)(15)-(15)-----| (15) variantes
B|----------------------------|--------2s-15--15---15------|
G|----------------------------|--------0-------------------|
D|----------------------------|----------------------------|
A|----------------------------|----------------------------|
E|--3--------3b-------3s------|--12------------------------| x2

Ponts 1 :

E|-----------3--------5-------|-----------3--------5-------|
B|-----------3--------5-------|-----------3--------5-------|
G|----------------------------|----------------------------|
D|----------------------------|----------------------------|
A|----------------------------|----------------------------|
E|----------------------------|----------------------------|

E|-----------3--------5-------|-----------3--------5-------|
B|-----------3--------5-------|-----------3--------5-------|
G|----------------------------|----------------------------|
D|----------------------------|----------------------------|
A|----------------------------|----------------------------|
E|----------------------------|----------------------------| x4

Ponts 2 : (pont x1 puis :)
E|-----------3----------------|-----------3--------5-------|
B|-----------3--------5s-3| L---|--3--------3--------5-------|
G|----------------------------|----------------------------|
D|----------------------------|----------------------------|
A|----------------------------|----------------------------|
E|----------------------------|----------------------------|

E|-----------3----------------|-----------3--------5-------|
B|-----------3--------5s-3| L---|--3--------3--------5-------|
G|----------------------------|----------------------------|
D|----------------------------|----------------------------|
A|----------------------------|----------------------------|
E|----------------------------|----------------------------| x2


Intro
Couplet 
Refrain 
Couplet 
Refrain 
Pont 1
Refrain 
Couplet 
Refrain 
Pont 1
Pont 2
Outros vídeos desta música
    5 exibições
      • ½ Tom
      • A
      • Bb
      • B
      • C
      • Db
      • D
      • Eb
      • E
      • F
      • F#
      • G
      • Ab
    • Adicionar à lista

    Afinação da cifra

    Afinador online

      0 comentários

      Ver todos os comentários

      Conseguiu tocar?

      0Tocaram0Ainda não

      Grave um vídeo tocando Lolita Nie En Bloc e nos envie!

      Toque também

      1. Imagem do artista MatmatahRibettes Matmatah
      2. Imagem do artista Louise AttaqueTes Yeux Se Moquent Louise Attaque
      3. Imagem do artista Alain BashungOsez Joséphine Alain Bashung
      4. Imagem do artista EiffelAu Néant Eiffel

      Entre para o Cifra Club PRO

      Tenha acesso a benefícios exclusivos no App e no Site

      • Chega de anúncios

      • Badges exclusivas

      • Mais recursos no app do Afinador

      • Atendimento Prioritário

      • Aumente seu limite de lista

      • Ajude a produzir mais conteúdo

      Cifra Club Pro

      Aproveite o Cifra Club com benefícios exclusivos e sem anúncios
      Cifra Club Pro
      Aproveite o Cifra Club com benefícios exclusivos e sem anúncios
      OK