Cifra Club

Passei A Noite No Forró

Dorgival Dantas

Cifra: Principal (violão e guitarra)
Selo Cifra Club: esta cifra foi revisada para atender aos critérios oficiais da nossa Equipe de Qualidade.
tom: C
[Intro] C  Am  Dm  G

E|------------------|----------------------|
B|------------------|----------------------|
G|--7/9-9-9-7-------|--7/9-9-9-7---7-------|
D|------------10-7--|-----------10---10-7--|
A|------------------|----------------------|
E|------------------|----------------------|

E|-------------------------|
B|-------------------------|
G|--7/9-9-9-7--------------|
D|-----------10-7----7-10--|
A|----------------10-------|
E|-------------------------|

E|------------------|------------------------------|
B|------------------|------------------------------|
G|--7/9-9-9-7-------|--7/9-9-9-7---7---------------|
D|------------10-7--|-----------10---10-7----7-----|
A|------------------|---------------------10---10--|
E|------------------|------------------------------|

C                 E                  Am
Ahhhh que bom seria a gente se encontrar
         Em               F
Na lua cheia em qualquer lugar
         C              G
Fazer amor até o amanhecer
 
C               E                    Am
Ah são tantas coisas que eu quero te dar
          Em                 F
Quantas palavras tenho pra falar
           C                    G
To me guardando há tempos pra você

E                               Am
Eu me comportei Eu fui um bom rapaz
                           D
Mas sei que posso Ser bem muito mais
              G
E isso só depende de você

E                             Am
É talvez exista Outro igual a mim
                                     D
Mas pra fazer um forrozim gostoso assim
                           G  G7
Eu desafio E ate pago pra ver
                        
Eu passei a Noite no forró
    C       Am
Dancei só com você
  F                         Fm
Aquilo tudo pra mim foi tão lindo
         C              Am      Dm
Foi tão bom Meu bem te conhecer

G
Eu passei
        C
A noite no forró
00:00 / 00:00
Outros vídeos desta música
Repetir
Outros vídeos desta música
17.785 exibições
    • ½ Tom
    • A
    • Bb
    • B
    • C
    • Db
    • D
    • Eb
    • E
    • F
    • F#
    • G
    • Ab
  • Adicionar à lista

Afinação da cifra

Afinador online

    0 comentários

    Ver todos os comentários

    Entre para o Cifra Club PRO

    Tenha acesso a benefícios exclusivos no App e no Site

    • Chega de anúncios

    • Mais recursos no app do Afinador

    • Atendimento Prioritário

    • Aumente seu limite de lista

    • Ajude a produzir mais conteúdo

    00:00 / 00:00

    Cifra Club Pro

    Aproveite o Cifra Club com benefícios exclusivos e sem anúncios
    Cifra Club Pro
    Aproveite o Cifra Club com benefícios exclusivos e sem anúncios
    OK